´╗┐ w | workhorse movement | keep the sabbath dream alive crd online player | |


  
#-----------------------------PLEASE NOTE-------------------------------------#
#This OLGA file is the author's own work and represents their interpretation  #
#of the song. You may only use this file for private study, scholarship, or   #
#research. Remember to view this file in Courier, or some other monospaced    #
#font. See http://www.olga.net/faq/ for more information.                     #
#-----------------------------------------------------------------------------#

Date: Wed, 21 Feb 2001 06:51:51 -0500
From: Richard Walledge 
Subject: w/workhorse_movement/keep_the_sabbath_dream_alive.crd

"Keep The Sabbath Dream Alive"
By The Workhorse Movement
>From "Sons of the Pionneers" (2000)
Transcribed by Richard

This song is in Drop-D tuning, so you have to make sure to put your low
E string 7th fret the same note as the A string.

VERSE:
E:----------------------
B:---------6-5----------
G:--7-7-7------5-(7)(7)-
D:----------------------
A:----------------------
d:----------------------


CHORUS:
E:-------------------------------------
B:-------------------------------------
G:-------------------------------------
D:--0-0-0-0-0-0-0-0--3-3-3-3-3-3-3-3---
A:--0-0-0-0-0-0-0-0--3-3-3-3-3-3-3-3---
d:--0-0-0-0-0-0-0-0--3-3-3-3-3-3-3-3---

E:--------------------------------------
B:--------------------------------------
G:--------------------------------------
D:--5-5-5-5-5-5-5-5--0-0-3-0-3-0-3-5-3--
A:--5-5-5-5-5-5-5-5--0-0-3-0-3-0-3-5-3--
d:--5-5-5-5-5-5-5-5--0-0-3-0-3-0-3-5-3--



http://www.geocities.com/kesmaster.geo/
Let me know if you have figured out any other songs by the band...
(email address changes, so check to site above for current contact
details).Hope you enjoy the song, lets get more Workhorse on the net!