u | uriah heep | the wizard tab online player | |


  
#-----------------------------PLEASE NOTE-------------------------------------#
#This OLGA file is the author's own work and represents their interpretation  #
#of the song. You may only use this file for private study, scholarship, or   #
#research. Remember to view this file in Courier, or some other monospaced    #
#font. See http://www.olga.net/faq/ for more information.                     #
#-----------------------------------------------------------------------------#

Date: Mon, 23 Jun 2003 18:17:32 -0700
From: Jay Michael McColl 
From: philg@juggler.bt.co.uk (Phil Green)
Date: Sat, 04 Nov 95 17:14:17 PST
From: cdkingjay@cox.net (Jay Michael McColl)
Date: June 23, 2003 17:47 PDST
Subject: u/uriah_heep/the_wizard.tab

Artist: Uriah Heep
Song: The Wizard
Album: Demons and Wizards

^This is my own work^ There is another version of this song from Phil
Green, however the key and some of the notes and chords seem wrong.

Tuning: C G C F A D    All strings are tuned down a full step except for
the low E string which is tuned down two steps to a C.

Listen to the song to get the timing and chord changes right, good luck.

RIFF A INTRO
D---2--2--3P2--0H2------------------2---2--2--3P2--OH2-----------------
A----3--3----3----3----0----0-------3----3--3----3----3----0----0------
F---------------------0----0--------2---------------------0----0-------
C-----0--0----0----0-2----0--3P0----0-----0--0----0----0-2----0--------
G-------------------3----2----------0-------------------3----2---------
C-0-----------------------------3-0-0-0---------------------------3-0-3

RIFF B
     He was the wizard...
     And I chance to meet him...
     ...Me and my magic man...
     He had a cloak of...
     And as he spoke I...
     ...And help the people to...
     D     D    D  Ds4  D As   D  C  C C C C  D D
D----2-----2----2---3---2--0H2-2--0--0-0-0-0--2-2--
A----3-----3----3---3---3--3---3--1--1-1-1-1--3-3--
F----2-----2----2---2---2--2---2--0--0-0-0-0--2-2--   X 3
C----0-----0-0----0-----0--0---0--2--2-2-2-2--0-0--
G----0-----0-0----0------------3--3--3-3-3-3-------
C-0--0---0-----------------------------------------

RIFF C   PLAY ONCE THEN PLAY RIFF B ONCE MORE

      He told me tales...
      To free the world...
   C    C    Cmaj7          C   Cmaj7    C
D--0--0-0--0-0--0-0--0-0--0-0--0-0--0-0--0--
A--1--1-1--1-0--0-0--0-0--1-1--1-0--0-0--1--
F--0--0-0--0-0--0-0--0-0--0-0--0-0--0-0--0--
C--2----2----2----2----2----2----2----2--2--
G--3----3----3----3----3----3----3----3--3--
C-------------------------------------------

BRIDGE:
PLAY THIS PART ONCE   / PLAY THIS 4 TIMES THEN BACK TO RIFF B AND FADE

          Why don't we listen to the...

   C Cmaj7 Em  D            Ab6  A             Ab6 A Em7
D--0---0---0---2-2-2--/-------------------------------3--3-3--3-3--3-3-
A--1---0---0---3-3-3--/------1S2-2-2-2-2-2-2-2-1S2-2--0--0-0--0-0--0-0-
F--0---0---0---2-2-2--/------1S2-2-2-2-2-2-2-2-1S2-2--0--0-0--0-0--0-0-
C--2---2---2---0------/------1S2-2-2-2-2-2-2-2-1S2-2--0--0-0--0-0--0-0-
G--3---3---2---0------/-------------------------------2--2-2--2-2--2-2-
C--0---0---0----------/------------------------------------------------