´╗┐ tabs | misc comp games | super mario theme tab online player | |


  
#-----------------------------PLEASE NOTE-------------------------------------#
#This OLGA file is the author's own work and represents their interpretation  #
#of the song. You may only use this file for private study, scholarship, or   #
#research. Remember to view this file in Courier, or some other monospaced    #
#font. See http://www.olga.net/faq/ for more information.                     #
#-----------------------------------------------------------------------------#

Date: Thu, 8 Apr 2004 16:17:55 +0100
From: Meak 
Subject: m/misc_comp_games/super_mario_theme.tab

SUPER MARIO THEME TUNE
 
Tabbed by Meak 8/4/04
 
watch the video at http://www.fuggled.co.uk/supermarioonguitar.AVI
 
--------------------------------------------------------------------
 
The other Mario tabs are either too complicated or inaccurate.
This tab is a complete mixture of all the others, and sounds very jazzy
on a steel strung acoustic.
This is the exact tab of what I play in my video. (see URL above)
The coin noises are tabbed in, but are very hard to get right on an
acoustic guitar!
 
This tab has five parts:
Part 1 is the intro
Part 2 should be played twice (just repeat)
Part 3
Part 4
Underground Theme
 
-------------------------------------------------------------------
 
 
            INTRO  - PART
1                                                 PART 2
e:---------------------------3-------------------I-----------------------------
B:--5--5----5--------5-------------------------I--------8--------5-------1---
G:----------------5---------0------0------------I-------9--------5-------0---
D:--4--4----4----4--4--------------------------I-----------------------------
A:--5--5----5----5--5--------------------------I-----------------3-----------
E:----------------------------------3------------I-------8----------------3---
 
 
 
 
 
e:----------------------------------------------5-----------------------------I
B:----1------3---2---1-----------------5--8--6---6--8--5------------------I--
G:----2------4---3---2-----------------5--5----------5--5---5----7----0---I---
D:----------------------------------5----------------------------------------I--
A:----3------5---4---3------------------------------------------------------I--
E:-------------------------------------------------------------5----7----0---I--
 
 
 

            PART 3
e:-----------------------------------------------------------------------
B:---------8---7---6---4---5-------------------------------8---7---6---4--
G:---------9---8---7---4---5------------5-----5h-7--------9---8---7---4--
D:--------------------------------5h-7-----7-----------------------------
A:-----------------------------------------------------------------------
E:------8----------------------------------------------8-----------------
 
 
 
 
 
e:--------8----8--8--------------------------------------------------------
B:-5-----8----8--8---------------------8---7---6---4---5------------------
G:-5-----7----7--7---------------------9---8---7---4---5---------------5--
D:-------------------------10-----------------------------------5h-7------
A:------------------------------------------------------------------------
E:--------------------------------8---------------------------------------
 
 
 

                                                                                
             PART 4
e:------------------------------------------------/-----------------------
B:-------------------4----------3--------5--------/----------1-----1------
G:-------5h-7-------------------------------------/----------1-----1------
D:--7----------------6----------3--------5--------/-----------------------
A:-------------------------------1--------3--------/-----------------------
E:-------------------4----------------------------/-----------4-----4------
 

 

e:-----------------------------------------------------------------------------
B:-1-----1---3----5-------------------------1-----1-------1-----1---3----5-
G:-1-----1---3-------5-----2----0----------1-----1-------1-----1---3----5-
D:-----------------5--------2----------------------------------------------5--
A:--------------------------------3--------------------------------------------
E:-4-----------------------------------------4-----4-------4----------------
 
 
 
 
 
e:--------------------------------------------------------------------------
B:-------------------------------1------1--------1------1---3----5--------
G:-------------------------------1------1--------1------1---3-------5-----
D:--------5-------------------------------------------------------5--------
A:------------------3------------------------------------------------------
E:-------------------------------4------4--------4------------------------
 
 
 

                             (same as intro)
e:----------------------------------------------------3---------------------
B:--------------5-------5--------5---------5------------------------------
G:2---0-------------------------------5----5--------0-------0-------------
D:2-------------4-------4--------4---4-----------------------------------
A:----3---------5-------5--------5---5----5------------------------------
E:------------------------------------------------------------3-------------
 
 
 

    UNDERGROUND THEME
e:------------------------------------------------------------------------
B:------------------------------------------------------------------------
G:------------------------------------------------------------------------
D:--------10-------------7-----------8----------------------------10------
A:------------------------------------------------------------------------
E:-----8--------------5-----------6----------------------------8----------
 
 
 

                                                    (slide)
e:------------------------------------------------------------------------
B:------------------------------------------------------------------------
G:------------------------------------------------------10--------------7-
D:-----------7-----------8---------3/10-----------------------------------
A:---------------------------------------------------8---------------5----
E:--------5-----------6---------------------------------------------------
 

 
                          (quick harmonies)
e:--------------------!5!-!5!---------------------------------------------
B:-------------------!5!-!5!----------------------------------------------
G:---------8---------------------------------10--------------7--------8-
D:------------------------------------------------------------------------
A:------6---------------------------------8--------------5---------6----
E:------------------------------------------------------------------------