´╗┐ t | three dog night | old fashioned love song btab online player | |


  
#-----------------------------PLEASE NOTE-------------------------------------#
#This OLGA file is the author's own work and represents their interpretation  #
#of the song. You may only use this file for private study, scholarship, or   #
#research. Remember to view this file in Courier, or some other monospaced    #
#font. See http://www.olga.net/faq/ for more information.                     #
#-----------------------------------------------------------------------------#

Date: Sun, 16 Jun 2002 19:34:40 +0300
From: =?ISO-8859-1?Q?jan_bj=F6rklund?= 
Subject: t/three_dog_night/old_fashioned_love_song.btab

t/three_dog_night/Old_Fashioned_Love_Song.btab

Basstab by Jan Bjorklund, Finland 
You are welcome to request for basstabs!
Bienvenidos a pedirme transcripciones para el bajo!
Fingering and positions as suggested by TablEdit. 

TablEdited by Jan Bjorklund
Tuning : E A D G 	Time Signature: 4/4

 |       |       |       |        |       |       |       |        
|0---------------0-----------0---|--------------------------------|
|------------0-------------------|3---------------3-----------2---|
|--------------------------------|------------3-------------------|
|--------------------------------|--------------------------------|

 |       |       |       |        |       |       |       |        
|--------------------------------|--------------------------------|
|1-----------1---1-----------1---|0-----------0---0-----------0---|
|--------------------------------|--------------------------------|
|--------------------------------|--------------------------------|

 |       |       |       |        |       |       |       |        
|0-----------0---0---------------|--------------------------------|
|--------------------------------|3-----------3---3---------------|
|--------------------------------|--------------------------------|
|----------------------------3---|----------------------------1---|

 |       |       |       |        |       |       |       |        
|--------------------------------|--------------------------------|
|1-----------1---1-----------1---|0---------------0-----------0---|
|--------------------------------|------------0-------------------|
|--------------------------------|--------------------------------|

 |       |       |       |        |       |       |       |        
|0-----------0---0---------------|--------------------------------|
|--------------------------------|3-----------3---3-----------3---|
|--------------------------------|--------------------------------|
|----------------------------3---|--------------------------------|

 |       |       |       |        |       |       |       |        
|--------------------------------|--------------------------------|
|1---------------1-----------1---|0-----------0---0---2---0---4---|
|------------1-------------------|--------------------------------|
|--------------------------------|--------------------------------|

 |       |       |       |        |       |       |       |        
|0---------------0---------------|--------------------------------|
|------------0---------------4---|3-----------3---3---------------|
|--------------------------------|--------------------------------|
|--------------------------------|----------------------------1---|

 |       |       |       |        |       |       |       |        
|--------------------------------|--------------------------------|
|1-----------1---1-----------1---|0---------------0-----------0---|
|--------------------------------|------------0-------------------|
|--------------------------------|--------------------------------|

 |       |       |       |        |       |       |       |        
|0-----------0---0---------------|--------------------------------|
|--------------------------------|3-----------3---3-----------2---|
|--------------------------------|--------------------------------|
|----------------------------3---|--------------------------------|

 |       |       |       |        |       |       |       |        
|--------------------------------|--------------------------------|
|1---------------1-----------1---|0-----------0---0-----------0---|
|------------1-------------------|--------------------------------|
|--------------------------------|--------------------------------|

 |       |       |       |        |       |       |       |        
|0-----------0---0---------------|--------------------------------|
|--------------------------------|3-----------3---3-----------2---|
|--------------------------------|--------------------------------|
|----------------------------3---|--------------------------------|

 |       |       |       |        |       |       |       |        
|--------------------------------|--------------------------------|
|1-----------1---1-----------1---|0---------------0-----------0---|
|--------------------------------|------------0-------------------|
|--------------------------------|--------------------------------|

 |       |       |       |        |       |       |       |        
|0-----------0---0---------------|--------------------------------|
|--------------------------------|3-----------3---3-----------3---|
|--------------------------------|--------------------------------|
|----------------------------3---|--------------------------------|

 |       |       |       |        |       |       |       |        
|--------------------------------|--------------------------------|
|1-----------1---1-----------1---|0-----------0---0-----------0---|
|--------------------------------|--------------------------------|
|--------------------------------|--------------------------------|

 |       |       |       |        |       |       |       |        
|0-----------0---0---------------|--------------------0-----------|
|----------------------------4---|3-----------3---3-------3---3---|
|--------------------------------|--------------------------------|
|--------------------------------|--------------------------------|

 |       |       |       |        |       |       |       |        
|--------------------------------|--------------------------------|
|1-----------1---1---3---1---1---|0-----------0---0-----------0---|
|--------------------------------|--------------------------------|
|--------------------------------|--------------------------------|

 |       |       |       |        |       |       |       |        
|--------------------------------|--------------------------------|
|--------------------------------|--------------------------------|
|1-----------1---1---------------|1-----------1---1---------1-1---|
|--------------------------1-3---|--------------------------------|

 |       |       |       |        |       |       |       |        
|--------------------------------|--------------------------------|
|--------------------------------|--------------------------2-0---|
|3-----------3---3-----------0---|3-----------3---3---------------|
|--------------------------3-----|--------------------------------|

 |       |       |       |        |       |       |       |        
|--------------------------------|--------------------------------|
|1-----------1---1---------1-1---|3-----------3---3---------------|
|--------------------------------|--------------------------2-0---|
|--------------------------------|--------------------------------|

 |       |       |       |        |       |       |       |        
|--------------------------------|--------------------------------|
|--------------------------------|--------------------------------|
|1-----------1---1---------1-----|1-----------1---1---------1-1---|
|----------------------------1---|--------------------------------|

 |       |       |       |        |       |       |       |        
|--------------------------------|--------------------------------|
|--------------------------------|--------------------------------|
|1-----------1---1---3---1-------|1-----------1---1---------1-1---|
|----------------------------1---|--------------------------------|

 |       |       |       |        |       |       |       |        
|--------------------------------|--------------------------------|
|--------------------0-----------|--------------------------3-0---|
|3-----------3---3-------3-------|3-----------3---3---------------|
|----------------------------3---|--------------------------------|

 |       |       |       |        |       |       |       |        
|----------------------------0---|--------------------------1-----|
|1-----------1---1---------1-----|3-----------3---3-----------4---|
|--------------------------------|--------------------------------|
|--------------------------------|--------------------------------|

 |       |       |       |        |       |       |       |        
|0-----------0---0---------------|--------------------------------|
|--------------------------4-2---|3-----------3---3---3-----3-3---|
|--------------------------------|--------------------------------|
|--------------------------------|--------------------------------|

 |       |       |       |        |       |       |       |        
|--------------------------------|--------------------------1-----|
|1-----------1---1---------1-1---|0-----------0---0-----------4---|
|--------------------------------|--------------------------------|
|--------------------------------|--------------------------------|

 |       |       |       |        |       |       |       |        
|0-----------0---0---------0-0---|--------------------------------|
|--------------------------------|3-----------3---3---------2-0---|
|--------------------------------|--------------------------------|
|--------------------------------|--------------------------------|

 |       |       |       |        |       |       |       |        
|--------------------------------|--------------------------------|
|1-----------1---1---1-----1-1---|0-----------0---0---------0-0---|
|--------------------------------|--------------------------------|
|--------------------------------|--------------------------------|

 |       |       |       |        |       |       |       |        
|0-----------0---0-----------0---|--------------------------------|
|--------------------------------|3-----------3---3---------------|
|--------------------------------|--------------------------------|
|--------------------------------|----------------------------1---|

 |       |       |       |        |       |       |       |        
|--------------------------------|----------------------------1---|
|1-----------1---1-----------1---|0-----------0---0---------------|
|--------------------------------|--------------------------------|
|--------------------------------|--------------------------------|

 |       |       |       |        |       |       |       |        
|0-----------0---0---------------|--------------------------------|
|--------------------------------|3---------------3-----------3---|
|--------------------------------|------------3-------------------|
|----------------------------3---|--------------------------------|

 |       |       |       |        |       |       |       |        
|--------------------------------|--------------------------------|
|1-----------1---1---3---1---1---|0-----------0---0-----------0---|
|--------------------------------|--------------------------------|
|--------------------------------|--------------------------------|

 |       |       |       |        |       |       |       |        
|0---------------0-----------0---|--------------------0-----------|
|------------0-------------------|3-----------3---3-------3-------|
|--------------------------------|----------------------------3---|
|--------------------------------|--------------------------------|

 |       |       |       |        |       |       |       |        
|--------------------------------|--------------------------------|
|1-----------1---1---3---1---1---|0-----------0---0---2---0---4---|
|--------------------------------|--------------------------------|
|--------------------------------|--------------------------------|

 |       |       |       |        |       |       |       |        
|0-----------0---0---------------|--------------------0-----------|
|--------------------------------|3-----------3---3-------3---3---|
|--------------------------------|--------------------------------|
|----------------------------3---|--------------------------------|

 |       |       |       |        |       |       |       |        
|--------------------------------|--------------------------------|
|1-----------1---1-----------1---|0---------------0-----------0---|
|--------------------------------|------------0-------------------|
|--------------------------------|--------------------------------|

 |       |       |       |        |       |       |       |        
|--------------------------------|--------------------------------|
|--------------------------------|--------------------------------|
|1-----------1---1---------1-----|1-----------1---1---------1-1---|
|----------------------------1---|--------------------------------|

 |       |       |       |        |       |       |       |        
|--------------------------------|--------------------------------|
|--------------------------------|--------------------------------|
|3-----------3---3-----------0---|3-----------3---3-----------3---|
|--------------------------3-----|--------------------------3-----|

 |       |       |       |        |       |       |       |        
|--------------------------------|--------------------------------|
|1-----------1---1---1-----1-1---|3-----------3---3---3-----3-3---|
|--------------------------------|--------------------------------|
|--------------------------------|--------------------------------|

 |       |       |       |        |       |       |       |        
|--------------------------------|--------------------------------|
|--------------------------------|--------------------------------|
|1-----------1---1---------------|1-----------1---1---------2-0---|
|--------------------------1-3---|--------------------------------|

 |       |       |       |        |       |       |       |        
|--------------------------------|--------------------------------|
|--------------------------------|--------------------------------|
|1-----------1---1---------------|1-----------1---1---------1-1---|
|--------------------------1-3---|--------------------------------|

 |       |       |       |        |       |       |       |        
|--------------------------------|--------------------------------|
|--------------------------------|--------------------------2-0---|
|3-----------3---3-----------0---|3-----------3---3---------------|
|--------------------------3-----|--------------------------------|

 |       |       |       |        |       |       |       |        
|--------------------------------|--------------------------------|
|1-----------1---1---------4-2---|3-----------3---3---------3-3---|
|--------------------------------|--------------------------------|
|--------------------------------|--------------------------------|

 |       |       |       |        |       |       |       |        
|--------------------------2-1---|----10--12--13------------------|
|--------------------------------|--------------------------------|
|1-----------1---1---------------|--------------------------------|
|--------------------------------|--------------------------------|


Created with TablEdit http://www.tabledit.com/

............................................................