´╗┐ s | switchfoot | concrete girl tab online player | |


  
Concrete Girl
Switchfoot:(Self titled)
Copyright 1996 re:think Records
Tabbed by Collin Derrick
e-mail:ejd@china2.ygi.edu.cn

Verse:
E|-----------------------------------------------------------------------------------------|
B|-----0-H1-0---------------0-H1-0-------------------0-H1-0----------------------1-P0------|
G|-----------------------------------------------------------------------------0------2-P0-|
D|-----------------------------------------------------------------------------------------|
A|---3--------------------0--------------------------------------------3-3--3--------------|
E|-------------------------------------------------3-------------------1-1--1--------------|
             bleeding             cracking boulders        dont't fall o-ver
			thoughts    

E|--------------------------------------------------------------------------1-----1-|
B|-----0-H1-0-----------------0-H1-0-------------------0-H1-0---------------1-----1-|
G|--------------------------------------------------------------------------2-----2-|
D|--------------------------------------------------------------------------3-----3-|
A|---3----------------------0-----------------------------------------------3-----3-|
E|---------------------------------------------------3----------------------1-----1-|
             plead to no-one        burn the ?               sing it louder twist and

Chorus:(power chords H=high)
      HE   B           A   C
	shout nothin' to run from
	              HE  B
	is worse than something
                       A   C
	of all your fears of nothing and we're
      C#       Ab      A     C
	spinning around again again and we're
 	C#       Ab     F  E 
	spinning around concrete girl (on girl start the verse)