s | suede | weight of the world tab online player | |


  
#-----------------------------PLEASE NOTE-------------------------------------#
#This OLGA file is the author's own work and represents their interpretation  #
#of the song. You may only use this file for private study, scholarship, or   #
#research. Remember to view this file in Courier, or some other monospaced    #
#font. See http://www.olga.net/faq/ for more information.                     #
#-----------------------------------------------------------------------------#

From: AAuuddee@aol.com
Date: Tue, 29 Feb 2000 15:20:58 EST
Subject: s/suede/weight_of_the_world.tab

WEIGHT OF THE WORLD By Suede=20
(from Everything will flow B-side)
----------------------------------
Tabbed by AAuuddee@aol.com



PLAY THIS TAB ALONG THE TUNE: (I have to say that I tried to do it
as right as possible but it's not easy to tab it very precisely.
But nevertheless, it sounds quite right...)

  D                      A                   Bm
--2-------2s3s2-----2----2-------0------------------2----------
-------3--------------0--------2---2----2----3----------3------
----2------------2----------2-------------0------4----4---4----
--------------------------------------2--------4------------4--
---------------------------------------------------------------
---------------------------------------------------------------


  Em                  G          =20
----------2s3s2--0-----------3---------------3--3--5--6--9-----
--------0----------------------0---0---------3-----------------
------0------------0-------------0---0-------3-----------------
----2---------------------0---------------0--------------------
--2---------------------2---------------0----------------------
----------------------3----------------------------------------


  D
--2------2h3p2---2----3s5--3--2--0--2s3s2--0----
------3--------3---3-------------------------0-- (x4)
----2-------------------------------------------
------------------------------------------------
------------------------------------------------
------------------------------------------------


BRIDGE: D / Bm with ------2- / G / A
                    ----3---
                    --4-----


PLAY THE TAB ONCE and finish on a D


ENJOY!!