s | sporks | just kidding tab online player | |


  
#-----------------------------PLEASE NOTE-------------------------------------#
#This OLGA file is the author's own work and represents their interpretation  #
#of the song. You may only use this file for private study, scholarship, or   #
#research. Remember to view this file in Courier, or some other monospaced    #
#font. See http://www.olga.net/faq/ for more information.                     #
#-----------------------------------------------------------------------------#

Date: Sun, 11 May 2003 22:11:13 +0000
From: chris petro 
Subject: s/sporks/just_kidding.tab

Artist: The Sporks

Song: Just Kidding

Music written by: Chris Petrovich

Tabbed by: imsporked@hotmail.com



Part 1:



E--------------------

B--7-5---5-----------

G------7-------------

D--------------------

A--------------------

E--------------------



Part 2:

E------------------------------------------

B------------------------------------------

G------------------------------------------

D--7-7--77------------4-4--44--------------

A--5-5--55---777^7----2-2--22---55^77------

E------------555-5--------------33-55------



Part 3:

E-------------------------------------------------

B-------------------------------------------------

G-------------------------------------------------

D---77777777------------44444444------------------

A---55555555--77777777--22222222^-55555555--------

E-------------55555555------------33333333--------



Part 4:

E-------------------------------------------------

B------7-5------------5----------5-7----7-5---5---

G----------7-6----6-7---7----6-7------------7-----

D--77----------------------4----------------------

A--55----------77----------2----------5-----------

E--------------55---------------------3-----------