s | sporks | good times tab online player | |


  
#-----------------------------PLEASE NOTE-------------------------------------#
#This OLGA file is the author's own work and represents their interpretation  #
#of the song. You may only use this file for private study, scholarship, or   #
#research. Remember to view this file in Courier, or some other monospaced    #
#font. See http://www.olga.net/faq/ for more information.                     #
#-----------------------------------------------------------------------------#

Date: Sun, 11 May 2003 22:49:25 +0000
From: chris petro 
Subject: s/sporks/good_times.tab

Artist: The Sporks

Song: Good Times

Music written by: Chris Petrovich

Tabbed by: imsporked@hotmail.com



Part 1:



E---------------------------------------------

B---------------------------------------------

G---------------------------------------------

D--99---6h7p6-----------99--6h7p6-------------

A--77---------7-777777--77---------9-999999---

E-------------5-555555-------------7-777777---



E------------------------------------------

B------------------------------------------

G------------------------------------------

D--99^6h7p6--------------------------------

A--77-------7-777777-^999999999999---------

E-----------5-555555^-777777777777---------



Part 2:

E----------------------------------------------------------------

B----------------------------------------------------------------

G----------------------------------------------------------------

D---55555---------777777--999---7777-p^5555----------------------

A---33333--555555-555555^-777---5555-p-3333--55555-999999999999--

E----------333333----------------------------33333-777777777777--



Part 3:

E---------------------------------------

B---------------------------------------

G---------------------------------------

D--5--555--999-7--797-------------------

A--3--333--777-5--575-----999999999999--

E-------------------------777777777777--

 {----------3x--------------}