s | smashing pumpkins | stand inside your love tab online player | |


  
#-----------------------------PLEASE NOTE-------------------------------------#
#This OLGA file is the author's own work and represents their interpretation  #
#of the song. You may only use this file for private study, scholarship, or   #
#research. Remember to view this file in Courier, or some other monospaced    #
#font. See http://www.olga.net/faq/ for more information.                     #
#-----------------------------------------------------------------------------#

Date: Mon, 23 Jun 2003 14:35:28 +0200
From: Florian Kllich 
Date: Sat, 26 Aug 2000 23:42:16 -0400
From: Maxacaster@aol.com
Subject: s/smashing_pumpkins/stand_inside_your_love.tab

Song: Stand Inside Your Love
Artist: Smashing Pumpkins
Album: Machina the Machines of God
Written by: the one and only Billy Corgan
Tabbed by: the one and only Max Perenchio(Maxacaster@aol.com)
Correction by: F.Kllich (masterf@keashsoft.com)
Tuning: Eb
Notes: Well i finally took the time to do something from the new album. Here
it is hope you enjoy.


///INTRO\\\ FIG 1
(notes: clean, let ring)
E------------------------R
B---3-----3-----3------3-E
G-----0-----0--------0---P
D-4-----4-----4----------E
A------------------------A
E------------------0-----T
then:
E-----------------------------------0-
B---3----3---------------3----------0-
G-----2----2---2----2------2---2--2---
D-------0----0-----2---------0----2---
A-2--------------0-----2----------0---
E-------------------------------------

///VERSE\\\- do FIG 1

///PRECHORUS\\\ FIG 2
(notes: light distortion, strum accordingly)
E--3---0---0---0---
B--0---3---3---0---
G--0---4---2---2---
D--0---4---0---2---
A--x---2-------0---
E--3---------------

///CHORUS\\\    FIG 3
(notes: HEAVY distortion, strum accordingly)
E--0---0---0---0---
B--0---0---3---0---
G--0---0---2---2---
D--2---2---0---2---
A--2---2-------0---
E--0---0-----------

///VERSE\\\-do FIG 1

///PRECHORUS\\\-do FIG 2 (heavy distortion)

///CHORUS\\\-do FIG 3
(notes: the rhythm is the same, but in this chorus James picks up his ebow
and puts these licks over.)

FIG 4
1st and 2nd time (w/ ebow)
E-----------------
B-----------------
G-12----11--7-----
D-----------------
A-----------------
E-----------------

FIG 5
3rd and 4th time (no ebow) strum 16th notes.
E---------------
B---------------
G--12-----11--7-
D--x------x---x-
A--10-----9---5-
E---------------

///SOLO\\\  FIG 6
(note: this is a VERY accurate solo. W/ ebow. Back this up with FIG 3)
E-------------------------------------------------------
B-------------------------------------------------------
G-7-9---11--------14-9--7-4-11--9--16--14---19/21---14--
D-------------------------------------------------------
A-------------------------------------------------------
E-------------------------------------------------------


///OUTRO\\\
do FIG 3 - 2x
do FIG 2 - 2x
do FIG 3 - 3x

End on Em

This was a short tab, but I feel it is one of my most accurate tabs ever.
You
decide, and send me your comments at Maxacaster@aol.com

----------------------------------------------------------------------------
Correction: Guitar Solo (tabbed by F.Kllich)
----------------------------------------------------------------------------

i don't think the above is accurate. here's my try:

~ .. vibrato
/ .. slide up
\ .. slide down
b .. half bend

(pre-solo)
b --12~~/15~~-----

(solo)
b -----12~/15~/17~~-19~~~~-22\17~-15\12-19~~~--------15---17~---10~~~
g -------------------------------------------16b--14-----------------