´╗┐ s | slapshock | numb crd online player | |


  
#-----------------------------PLEASE NOTE-------------------------------------#
#This OLGA file is the author's own work and represents their interpretation  #
#of the song. You may only use this file for private study, scholarship, or   #
#research. Remember to view this file in Courier, or some other monospaced    #
#font. See http://www.olga.net/faq/ for more information.                     #
#-----------------------------------------------------------------------------#

Date: Wed, 7 Aug 2002 02:38:58 -0700 (PDT)
From: Kritti salomon 
Subject: s/slapshock/numb.crd

@ song : Numb
@ album : Project 11-41
@ artist : Slapshock
@ tabbed by : SlipVayNe 
@ corrections (solo, verse, chorus) by : SlipVayne 

IT IS IN DROPPED D TUNNING!!! HOPE YOU LIKE IT SLAPSHOCK FANS!!!

INTRO

1ST GUITAR:

DISTORTED (HEAVY) 
                           
E|--------------------------------------|
B|--------------------------------------|
G|--------------------------------------|   (7X)
D|-0-222-0-22-0-2-----------------------|  
A|-0-222-0-22-0-2-----------------------|
D|-0-222-0-22-0-2-----------------------|


E|----------------------------------------------------|
B|----------------------------------------------------|   
G|----------------------------------------------------|
D|--12-12-XXX-12-12-XXX-12-12-XXX-12-12-13------------|    (4X)
A|--12-12-XXX-12-12-XXX-12-12-XXX-12-12-13------------|
D|--12-12-XXX-12-12-XXX-12-12-XXX-12-12-13------------|
 
VERSE

2ND GUITAR:

NORMAL STRUM:
                 
E|---------------------------------------------------|
B|---------------------------------------------------|
G|--7-7-7-7--7-7-7-7---7-7-7-7-7---------------------|     (4X)
D|--7-7-7-7--5-5-5-5---7-7-7-7-5---------------------|
A|--5-5-5-5--5-5-5-5---5-5-5-5-5---------------------|
D|---------------------------------------------------|

I've tried to wish myself to gain....

1ST GUITAR:

DISTORTED:

E|------------------------|
B|------------------------|
G|------------------------|   (7X)
D|--00---00---------------|
A|--00---00---------------|
D|--00---00---------------|
    P.M. P.M.

REFRAIN:

2ND GUITAR:

DISTORTED:
E|----------------------------|
B|--15-------15-----12-12-12--|
G|-----14-14----14--11-11-11--|   (4X)
D|----------------------------|
A|----------------------------|
D|----------------------------|

I feel you... You feel me...

PRE-CHORUS:

1ST GUITAR:

DISTORTED:
E|----------------------------|
B|----------------------------|
G|----------------------------|   (4X)
D|-0-0-0-12-12-14-16----------|
A|-0-0-0-12-12-14-16----------|
D|-0-0-0-12-12-14-16----------|

Talk to talk i've said step back to back..
CHORUS:

1ST GUITAR:
E|----------------------------|
B|----------------------------|
G|----------------------------|   
D|-7----8----0----------------|
A|-7----8----0----------------|
D|-7----8----0----------------|

don't take away your right...

2ND GUITAR:

DISTORTED:
E|----------------------------|
B|----------------------------|
G|-7-9-10-9-7-----------------|   (4X)
D|-x-x-x--x-x-----------------|
A|-5-7-8--7-5-----------------|
D|----------------------------|

1ST GUITAR:
E|----------------------------|
B|----------------------------|
G|----------------------------|   
D|-7----3----0----------------|
A|-7----3----0----------------|
D|-7----3----0----------------|

Hope you like it guys!!!

Intro
Verse
Refrain
Pre-Chorus
Chorus
Verse
Refrain
Chorus