r | rem | wicked game crd online player | |


  
#----------------------------------PLEASE NOTE---------------------------------#
#This file is the author's own work and represents their interpretation of the #
#song. You may only use this file for private study, scholarship, or research. #
#------------------------------------------------------------------------------##
#

# For the latest collection of R.E.M. chords & tab, go to
# http://www.uark.edu/~cbray/rem/
#
# If you have any corrections or additions to this file, please email them
# to cbray@comp.uark.edu
#

here's "Wicked Game" by Chris Isaak (covered by R.E.M.)

From: Adrian Morse (amorse@waterw.com)

"Wicked Game"

tune down 1/2 step...

intro:
(add some tremolo action...)
-----------------------------------|-----------------------------------
-0----------7---------7\\-------0--|-0----------7---------7\\-------0--
-----------------------------------|-----------------------------------
-----------------------------------|-----------------------------------
-----------------------------------|-----------------------------------
-----------------------------------|-----------------------------------


                   ~~~~~~
--------------------------|
---5----------------------|
--6--7-6-4-----2---1------|
-7-----------4---2--------|
--------------------------|
--------------------------|


                       ~~~~
-2----0-----------------------------
---3----3--2----0-------------------
-------------4----4-2--1-----1-2-4-- o
----------------------2----2-------- o
------------------------------------
------------------------------------



verse
Bm        A         E    (fill)
                        ------------
                        ------------
                        ----2---1---
                        --4---2-----
                        ------------
                        ------------

Bm        A         E   (another fill)
                        ------------
                        ------------
                        ----1-2-4---
                        --2---------
                        ------------
                        ------------