r | reef | superhero tab online player | |


  
#-----------------------------PLEASE NOTE-------------------------------------#
#This OLGA file is the author's own work and represents their interpretation  #
#of the song. You may only use this file for private study, scholarship, or   #
#research. Remember to view this file in Courier, or some other monospaced    #
#font. See http://www.olga.net/faq/ for more information.                     #
#-----------------------------------------------------------------------------#

Date: Wed, 23 Jul 2003 18:24:15 EDT
From: GuerrillaRoss@aol.com
Subject: r/reef/superhero.tab

Artist: Reef
Song: Superhero
Album: Getaway

Main Riff/Verse
|--2----2--x-x-x-2-|-3-----3---------------------------|
|--3----3--x-x-x-3-|-3-----3------5p3---3p0------------|
|--2----2--x-x-x-2-|-5-----5------------------2p0------|
|--0----0--x-x-x-0-|-6-----6--4h5-----5-----4-----0----|
|------------------|-6-----6---------------------------|
|------------------|-3-----3---------------------------|


Chorus
|-3--3---3--3-|-3--3---3--3-|-------------|--------------|
|-3--3---3--3-|-5--5---5--5-|-7--7---7--7-|-7--7---7-7-7-|
|-4--4---4--4-|-5--5---5--5-|-7--7---7--7-|-7--7---7-7-7-|
|-5--5---5--5-|-5--5---5--5-|-7--7---5--7-|-7--7---5-7-5-|
|-5--5---5--5-|-3--3---3--3-|-5--5---5--5-|-5--5---5-5-5-|
|-3--3---3--3-|-------------|-------------|--------------|


Middle [think this is played on a keyboard]
|------------|------------|------------|------------|
|7--7--7--7--|5--5--5--5--|3--3--3--3--|0--0--0--0--|
|7--7--7--7--|5--5--5--5--|4--4--4--4--|0--0--0--0--|
|------------|------------|------------|------------|
|------------|------------|------------|------------|
|------------|------------|------------|------------|


Outro x4| x3|
|---------------|--------------|--------------|-------------|
|---------------|--------------|--------------|-------------|
|---------------|--------------|--------------|-7-----------|
|---------------|--------------|--------------|-7-----------|
|---------------|--------------|--------------|-5-----------|
|--5-7-8--7-5-3-|-5-7-8--5-7-8-|-5-7-8--5-7-5-|-------------|



Main Riff/Verse

Chorus

Verse

Chorus

Middle

Chorus

Outro

all ma own work blergh