r | red hot chili peppers | the greeting song tab online player | |


  
#-----------------------------PLEASE NOTE-------------------------------------#
#This OLGA file is the author's own work and represents their interpretation  #
#of the song. You may only use this file for private study, scholarship, or   #
#research. Remember to view this file in Courier, or some other monospaced    #
#font. See http://www.olga.net/faq/ for more information.                     #
#-----------------------------------------------------------------------------#

Date: Wed, 21 Aug 2002 12:09:09 +0000
From: Avishay Drori 
Subject: r/red_hot_chili_peppers/the_greeting_song.tab


Transcription By Avishay Drori

Song name - The Greeting Song
Artist - Red Hot Chili Peppers
Album - Blood Sugar Sex Magic



-------------------------------------------------------------------------
INTRO\VERSE (The intro is the same as the verse)

(Fast)

E-------------------------------------------------|
B----------------5-5-5-5------5-----5-----5-5-5-5-|
G----------------5-5-5-5------5-----5-----5-5-5-5-|
D--7-x-7---7-7-7-5-5-5-5---5--5--5--5---5-5-5-5-5-|
A--7-x-7---7-7-7-----------5-----5------5---------|
E--5-x-5---5-5-5-----------7-----7------7---------|

Those are the chords Am and C

-------------------------------------------------------------------------
Bridge 1 (4x) (0:29)

E---------------------------|
B---------------------------|
G---------7---9---10/11-----|
D--7/9----7---9---10/11-----|
A--7/9----5---7----8/9------|
E--5/7----------------------|

-------------------------------------------------------------------------
Bridge 2 (2x) (0:50)

E-----------------------|-----------------------|-----------------------|
B-----------------------|-----------------------|-----------------------|
G---------7---9---10/11-|---------7---9---10/11-|---------7---9---10/11-|
D--7/9----7---9---10/11-|--7/9----7---9---10/11-|--7/9----7---9---10/11-|
A--7/9----5---7----8/9--|--7/9----5---7----8/9--|--7/9----5---7----8/9--|
E--5/7------------------|--5/7------------------|--5/7------------------|

E----------------------------------|
B----------------------------------|
G----------------------------------|
D----------------------------------|
A----------------------------------|
E--3h5-5-5-5-5-5-5-3h5-5-5-5-5-5-5-|

-------------------------------------------------------------------------
Chorus (4x) (1:04)

(slow)

 AM C D
E--5------------3------5-|
B--5------------5------7-|
G--5------------5------7-|
D--7------------5------7-|
A--7------------3------5-|
E--5------------3------5-|

-------------------------------------------------------------------------

(1:33) play bridge 2
(1:48) play chorus

-------------------------------------------------------------------------

Solo (2:07)


E--8h10-7-----------------------------------------------------|
B-----------10---8h10-10--8---------------------------8-------|
G----------------------------9--7--7h8-5-------5--7/9---9\7p5-|
D----------------------------------------7--7-----------------|
A-------------------------------------------------------------|
E-------------------------------------------------------------|

E---------8/10---10h12-10----12--10-----10--------17--15---
B--10--10-----------------13---------13----13--------------
G----------------------------------------------------------
D----------------------------------------------------------
A----------------------------------------------------------
E----------------------------------------------------------

E--------------------------------------|
B--15h17\15p13h15---13-----------13----|
G-----------------------14-12-14----14-|
D--------------------------------------|
A--------------------------------------|
E--------------------------------------|



E-------------------------------------|
B-------------------------------------|
G-------------------------------------|
D-------------------------------------|
A-------------------------------------|
E--10-10-10-9-9-9-8-8-8-7-7-7-6-6-5-5-|

E-------------------------------------|
B-------------------------------------|
G-------------------------------------|
D-------------------------------------|
A-------------------------------------|
E--10-10-10-9-9-9-8-8-8-7-7-7-6-6-5-5-|

E-------------------------------------|
B-------------------------------------|
G-------------------------------------|
D-------------------------------------|
A-------------------------------------|

E---------------------------------------|
B---------------------------------------|
G---------------------------------------|
D---------------------------------------|
A---------------------------------------|
E-11-11-11-10-10-10-9-9-9-8-8-8-7-7-6-6-|
-------------------------------------------------------------------------

(2:44) play chorus

-------------------------------------------------------------------------
(2:58) play this: (2X)
 BM D E
E--7------------5------7-|
B--7------------7------9-|
G--7------------7------9-|
D--9------------7------9-|
A--9------------5------7-|
E--9------------5------7-|

-------------------------------------------------------------------------
(3:06) play chorus
-------------------------------------------------------------------------


Transcription By Avishay Drori

Music By Anthony Kiedis, Micheal Balzary, Chad Smith, and John Frusciante


Enjoy...