r | red hot chili peppers | cant stop tab online player | |


  
#-----------------------------PLEASE NOTE-------------------------------------#
#This OLGA file is the author's own work and represents their interpretation  #
#of the song. You may only use this file for private study, scholarship, or   #
#research. Remember to view this file in Courier, or some other monospaced    #
#font. See http://www.olga.net/faq/ for more information.                     #
#-----------------------------------------------------------------------------#

Date: 28 Jun 2002 21:03:42 -0000
From: runar_go@down.tc
Date: Mon, 14 Jul 2003 13:44:12 +0700
From: Colin Fraser 
Subject: r/red_hot_chili_peppers/cant_stop.tab


Can't Stop
Red Hot Chili Peppers
By The Way (2002) - Great Album, Buy It
Tabbed By Colin Fraser
Thanks to Runar B. Mland for tabbing the solo.

This is the best way that i can figure out to play the verse..use your ring 
finger on the A string, your pinky on the G
string and your index finger on the B string. When it goes down to the fifth 
fret use your index finger on the A string.
Use your left hand to must all the other strings..kind of hard to explain.

INTRO
--------------------
--------------------
--------------------
--------------------
5-7-5-7-5-7-5-7-5-7-
--------------------
VERSE
----------------------------------------------------------------------------------------------
------5-------5-5-----------5---------5-5-----------5---------5-5-----------------------------
----7-------7-----7-7-----7---------7-----7-7-----7---------7-----7-7-----7-9-------7-9-9-7-7-
----------------------------------------------------------------------------------------------
7-7-----7-7-----------5-5-----5-5-5-----------------------------------------------------------
----------------------------------------------7-7-----7-7-7-----------8-8-----8-8-8-----------

on last time, play like this

----------------------------------------------------------------------12-12-12-12
------5-------5-5-----------5---------5-5-----------5---------5-5-----13-13-13-13
----7-------7-----7-7-----7---------7-----7-7-----7---------7-----7-7-12-12-12-12
----------------------------------------------------------------------14---------
7-7-----7-7-----------5-5-----5-5-5-----------------------------------15---------
----------------------------------------------7-7-----7-7-7----------------------

Chorus

7--10--7--8-
8--10--7--8-
7--11--7--9-    note: i didnt write the timing for this, just the chords
9--12--9--10
------------
------------

Bridge (ska-ish part)


7-7-7-8-10-10-10-10-7-7-7--7-8--8--8--8-
8-8-8-8-10-10-10-12-7-7-10-x-8--8--8--10
9-9-9-9-11-11-11-11-8-8-9--9-9--9--9--9-        use this as a guideline, 
improvise a lot in this part using these basic
9-9-9-9-12-12-12-12-9-9-9--9-10-10-10-10        chords
----------------------------------------
----------------------------------------

Solo
e |------------------------------------|
B |-15b----r15----15/--12-----12-------|
G |-------------------------------12---|
D |------------------------------------|
A |------------------------------------|
E |------------------------------------|     slide
    | Vocals come in here                  | slowly
e |--------14-------------------------------------|
B |--15b-------15----15b--12--12b---10------------|
G |-------------------------------------12-\---9--|
D |-----------------------------------------------|THANKS TO RUNAR FOR THE SOLO
A |-----------------------------------------------|
E |-----------------------------------------------|

e |:------------------------------------:|
B |:-15b----r15----15/--12-----12-------:|
G |:-------------------------------12---:|
D |:------------------------------------:|
A |:------------------------------------:|
E |:------------------------------------:|

Listen to the song and put these together..its kind of self explanatory
This is my first tab...if you have comments or suggestions email me
at as_seen_on_television@hotmail.com. Later.