´╗┐ r | rammstein | sehnsucht crd online player | |


  
#-----------------------------PLEASE NOTE-------------------------------------#
#This OLGA file is the author's own work and represents their interpretation  #
#of the song. You may only use this file for private study, scholarship, or   #
#research. Remember to view this file in Courier, or some other monospaced    #
#font. See http://www.olga.net/faq/ for more information.                     #
#-----------------------------------------------------------------------------#

From: "Kristof Smits" 
Subject: r/rammstein/sehnsucht.crd
Date: Thu, 15 Aug 2002 15:58:06 +0200

Song: Sehnsucht
Artist: Rammstein
Album: Sehnsucht

Main Riff:
e----------------------------------------
B----------------------------------------
G--------9-8---10-9---12----10-x-x-9\7---
D--------9-8---10-9---12----10-x-x-9\7---
A--------7-6----8-7---10-----8-x-x-7\5---
E--0-0-0-----0-----0----0-0--------------
PM . . .     .     .    . .

Fill 1:
e----------
B----------
G----------
D----------
A--5-4-3---
E--3-2-1---
PM . . .

Verse:=20
Synthesizer

Pre-chorus:
e----------------------------------
B----------------------------------
G--9-----9-----9---9-----9---------
D--9-----9-----9---9-----9---------
A--7-----7-----7---7-----7-5-4-3---
E----0-0---0-0---0---0-0---3-2-1---
PM   . .   . .   .   . .   . . .

Fill 2:
e------------------------
B------------------------
G--9-----5-----7---------
D--9-----5-----7-----7---
A--7-----3-----5-----7---
E--------------------5---

Heavier chorus:
e----------------------------------------------------------------------
B----------------------------------------------------------------------
G--------------------------------------5--------5-4-2------------------
D--2-----------------2-----------------5--------5-4-2------------------
A--2--------5-5-4-3--2--------5-5-4-3--3--------3-2-0--------5-5-4-3---
E--0--------3-3-2-1--0--------3-3-2-1------------------------3-3-2-1---
PM          . . . .           . . . .                        . . . .


Song structure:
Intro (synthesizer)
Main Riff x6         (00:13)
Fill 1               (00:37)
Verse                (00:38)
Main Riff x4         (01:05)
Verse                (01:29)
Main Riff x7         (01:46)
Pre-chorus           (02:10)
Main Riff x4         (02:13)
Fill 2               (02:27)
Main Riff x2         (02:30)
Fill 2               (02:37)
Interlude (synth)    (02:41)
Heavier chorus x2    (03:08)
Main Riff x7         (03:36) abrupt stop on the F chord