´╗┐ r | raitt bonnie | thing called love btab online player | |


  
#-----------------------------PLEASE NOTE-------------------------------------#
#This OLGA file is the author's own work and represents their interpretation  #
#of the song. You may only use this file for private study, scholarship, or   #
#research. Remember to view this file in Courier, or some other monospaced    #
#font. See http://www.olga.net/faq/ for more information.                     #
#-----------------------------------------------------------------------------#

Date: Sat, 26 Apr 2003 21:58:37 +0200 (CEST)
From: Jan Bj÷rklund 
Subject: r/raitt_bonnie/thing_called_love.btab

bonnie_rait/thing_called_love,btab

tabbed by

TablEdited by Jan Bjorklund
Tuning : E A D G 	Time Signature: 4/4

 tempo 128       |               |               |                
|----------------------------------------------------------------|
|----------------------------------------------------------------|
|--------------------------------------------0-------------------|
|------------------------------------------------12/---------5---|

 |               |               |               |                
|----------------------------------------------------------------|
|--------------------------------5-------------------------------|
|----------------4---------7-------------------------------------|
|----------5-----------------------------------------------5-----|

 |               |               |               |                
|----------------------------------------------------------------|
|----------------------------------------------------------------|
|4---------7-----10/-------5-------------------------------------|
|--------------------------------0---------2-----3h--4h----5-----|

 |               |               |               |                
|----------------------------------------------------------------|
|--------------------------------5-------------------------------|
|----------------4---------7-------------------------------------|
|----------5-----------------------------------------------5-----|

 |               |               |               |                
|----------------------------------------------------------------|
|----------------5-------------------------6-----7---------7/--2-|
|4---------7-----------------------------------------------------|
|----------------------------------------------------------------|

 |               |               |               |                
|----------------------------------------------------------------|
|--------------------------------5-------------------------------|
|----------------4---------7-------------------------------------|
|----------5-----------------------------------------------5-----|

 |               |               |               |                
|----------------------------------------------------------------|
|----------------5---------------5-------------------------------|
|4---------7-------------------------------7-----3---------------|
|----------------------------------------------------------5-----|

 |               |               |               |                
|----------------------------------------------------------------|
|--------------------------------5-------------------------------|
|----------------4---------7-------------------------------------|
|----------5-----------------------------------------------5-----|

 |               |               |               |                
|----------------------------------------------------------------|
|----------------5-----------------------------------------------|
|4---------7-----------------------------4/--7---5h--3-----------|
|----------------------------------------------------------5-----|

 |     ┤don't have to humble youself...          |                
|----------------------------------------------------------------|
|--------------------------------5-------------------------------|
|----------------4---------7-------------------------------------|
|5---------5-----------------------------------------------5-----|

 |               |               |               |                
|----------------------------------------------------------------|
|----------------5-------------------------5---------------------|
|4---------7-------------------------------------7---------------|
|----------------------------------------------------------5-----|

 |               |               |               |                
|----------------------------------------------------------------|
|--------------------------------5-------------------------------|
|----------------4---------7-------------------------------------|
|----------5-----------------------------------------------5-----|

 |               |               |               |                
|----------------------------------------------------------------|
|----------------5-----------------------------------------------|
|4---------7-------------------------------0-----2---------3-----|
|----------------------------------------------------------------|

 |               |               |               |                
|--------------------------0-------------------------------------|
|----------------2-----------------------------------------------|
|----------3---------------------3-------------------------------|
|----------------------------------------------------------3-----|

 |       you know|I ain't no queen of Sheeba...  |                
|----------------------------------------------------------------|
|----------0-----------------------------------------------------|
|0---------------------------------------------------------------|
|----------------3---------------3-------------------------------|

 |               |               |               |                
|----------------------------------------------------------------|
|--------------------------------5-------------------------------|
|----------------4---------7-------------------------------------|
|5---------5-----------------------------------------------5-----|

 |               |               |               |                
|----------------------------------------------------------------|
|----------------------------------------------------------------|
|4---------7-----10/-------7-------------------------------------|
|--------------------------------2---------5-----3-----4---5-----|

 |               |               |               |                
|----------------------------------------------------------------|
|--------------------------------5-------------------------------|
|----------------4---------7-------------------------------------|
|----------5-----------------------------------------------5-----|

 |               |               |               |                
|----------------------------------------------------------------|
|----------------5-------------------------7-----5---------------|
|4---------7-----------------------------------------------------|
|----------------------------------------------------------3-----|

 |               |               |               |                
|----------------------------------------------------------------|
|--------------------------------5-------------------------------|
|----------------4---------7-------------------------------------|
|5---------5-------------------------------------5---------5-----|

 |               |               |               |                
|----------------------------------------------------------------|
|----------------5-------------------------5---------------------|
|4---------7---------------------7---------------7---------4-----|
|----------------------------------------------------------------|

 |               |               |               |                
|----------------------------------------------------------------|
|----------------2---------5-------------------------------------|
|----------3---------------------3-------------------------------|
|----------------------------------------------------------3-----|

 |               |               |               |                
|----------------------------------------------------------------|
|----------------------------------------------------------------|
|----------5-----------------------------------------------------|
|3---------------3---------------3-------------------------------|

 |               |               |               |                
|----------------------------------------------------------------|
|--------------------------------5-------------------------------|
|----------------4---------7-------------------------------------|
|----------5-------------------------------------5---------5-----|

 |               |               |               |                
|----------------------------------------------------------------|
|----------------5-----------------------------------------------|
|4---------7-----------------------------------------------------|
|--------------------------------3---------2-----5---------0-----|

 |               |   are you ready for the       |                
|----------------------------------------------------------------|
|----------------------------------------------------------------|
|----------------------------------------------------------------|
|1---------------1---------------1---------1-----1---------------|

 thing called love...            |               |                
|----------------------------------------------------------------|
|----------------------------------------------------------------|
|1---------1-----1---------------3---------------3---------------|
|----------------------------------------------------------0-----|

 |               |               |               |                
|----------------------------------------------------------------|
|----------------------------------------------------------------|
|----------------------------------------------------------------|
|1---------------1---------------1---------1-----1---------------|

 |               |               |               |                
|----------------------------------------------------------------|
|----------------------------------------------------------------|
|1---------1-----1---------------3---------------3---------------|
|----------------------------------------------------------0-----|

 |               |               |               |                
|----------------------------------------------------------------|
|----------------------------------------------------------------|
|----------------------------------------------------------------|
|1---------------1---------------1---------1-----1---------0-----|

 |               |               |               |                
|----------------------------------------------------------------|
|----------------------------------------------------------------|
|1---------1-----1---------1-----3---------------3---------------|
|----------------------------------------------------------0-----|

 |               |               |               |                
|----------------------------------------------------------------|
|----------------------------------------------------------------|
|------------------------------------------0-----3---------------|
|1---------------1---------------3-------------------------0-----|

 |               |               |               |                
|----------------------------------------------------------------|
|0---------------0---------------0-------------------------------|
|----------------------------------------------------------------|
|------------------------------------------0-----3---------0-----|

 |               |               |               |                
|--------------------------------0-------------------------------|
|2-------------------------2-------------------------------------|
|----------0-----4-------------------------------0---------0-----|
|----------------------------------------------------------------|

 |               |               |               |                
|----------------------------------------------------------------|
|----------------5-------------------------------7---------------|
|4---------7-----------------------------------------------------|
|------------------------------------------5---------------------|

 |               |               |               |                
|----------------------------------------------------------------|
|--------------------------------5-------------------------------|
|----------------4---------7-------------------------------------|
|----------5-------------------------------------0---------5-----|

 |               |               |               |                
|----------------------------------------------------------------|
|----------------5-------------------------5-----4/--------2-----|
|4---------7-----------------------------------------------------|
|----------------------------------------------------------------|

 |         I ain't no icon       |               |                
|----------------------------------------------------------------|
|--------------------------------5-------------------------------|
|----------------4---------7-------------------------------------|
|----------5-------------------------------------5---------5-----|

 carved out of soap              |               |                
|----------------------------------------------------------------|
|----------------5-------------------------5/--3-----------------|
|4---------7-----------------------------------------------------|
|------------------------------------------------5---------5-----|

 |               |               |               |                
|----------------------------------------------------------------|
|--------------------------------5-------------------------------|
|----------------4---------7-------------------------------------|
|----------5-------------------------------------5---------5-----|

 |               |               |               |                
|----------------------------------------------------------------|
|----------------5-------------------------7-----5---------------|
|4---------7-----------------------------------------------3-----|
|----------------------------------------------------------------|

 |               |               |               |                
|--------------------------0-------------------------------------|
|----------------2-----------------------------------------------|
|----------3---------------------3-------------------------------|
|----------------------------------------------------------3-----|

 |               |               |               |        
|----------------------------------------------------------------|
|----------0-----------------------------------------------------|
|2---------------------------------------------------------------|
|----------------3---------------3---------------3-( vibrato )---|

 |               |               |               |                
|----------------------------------------------------------------|
|--------------------------------5-------------------------------|
|----------------4---------7-------------------------------------|
|----------5-------------------------------------5---------5-----|

 |               |               |               |                
|----------------------------------------------------------------|
|----------------5-----------------------------------------------|
|4---------7-----------------------------------------------------|
|--------------------------------3---------5-----0---------5-----|

 |         We can|live in fear or|               |                
|----------------------------------------------------------------|
|--------------------------------5-------------------------------|
|----------------4---------7-------------------------------------|
|5-----------------------------------------5-----5---------5-----|

 act out of hope |               |               |                
|----------------------------------------------------------------|
|----------------5-----------------------------------------------|
|----------4-----------------------------------------------------|
|5-------------------------------0---------2-----3---------5-----|

 |               |               |               |                
|----------------------------------------------------------------|
|--------------------------------5-------------------------------|
|----------------4---------7-------------------------------------|
|----------5-------------------------------------0---------5-----|

 |               |               |               |                
|----------------------------------------------------------------|
|----------------5---------------5-------------------------------|
|4---------7-------------------------------7-----5---------------|
|----------------------------------------------------------7-----|

 |               |               |               |                
|----------------------------------------------------------------|
|----------------2---------5-------------------------------------|
|3---------3---------------------3---------------1---------------|
|----------------------------------------------------------3-----|

 |               |               |               |                
|----------------------------------------------------------------|
|----------0-----------------------------------------------------|
|2---------------------------------------------------------------|
|----------------3---------------3---------0-----3---------0-----|

 |               |               |               |                
|----------------------------------------------------------------|
|--------------------------------5-------------------------------|
|----------------4---------7-------------------------------------|
|----------5-------------------------------------0---------5-----|

 |               |               |               |                
|----------------------------------------------------------------|
|----------------5-----------------------------------------------|
|4---------7-------------------------------------3---------------|
|--------------------------0-----5---------5---------------0-----|

 |               are you ready for the           |                
|----------------------------------------------------------------|
|----------------------------------------------------------------|
|----------------------------------------------------------------|
|1---------------1---------------1---------1-----1---------1-----|

 thing called love...            |               |                
|----------------------------------------------------------------|
|----------------------------------------------------------------|
|1---------------1---------------3---------3-----3---------------|
|----------------------------------------------------------3-----|

 |               |               |               |                
|----------------------------------------------------------------|
|----------------------------------------------------------------|
|----------------------------------------------------------------|
|1---------1-----1---------1-----1---------1-----1---------0-----|

 |               |               |               |                
|----------------------------------------------------------------|
|----------------------------------------------------------------|
|1---------1-----1---------1-----3---------3-----3---------------|
|----------------------------------------------------------3-----|

 |               |               |               |                
|----------------------------------------------------------------|
|----------------------------------------------------------------|
|----------------------------------------------------------------|
|1---------------1---------------1---------1-----1---------3-----|

 |               |               |               |                
|----------------------------------------------------------------|
|----------------------------------------------------------------|
|1---------------1---------------3---------3-----3---------------|
|----------------------------------------------------------3-----|

 |               |               |               |                
|----------------------------------------------------------------|
|----------------------------------------------------------------|
|------------------------------------------------3---------------|
|1---------------1---------------3h--------5---------------0-----|

 |               |               |               |                
|----------------------------------------------------------------|
|0---------------0---------------0---------0-----0---------------|
|----------------------------------------------------------3-----|
|----------------------------------------------------------------|

 |               |               |               |                
|----------------------------------------------------------------|
|----------------------------------------------------------------|
|--------------------------3-------------------------------------|
|5---------------------------------------------------------------|

 |               |               |               |                
|----------------------------------------------------------------|
|----------------------------------------------------------------|
|----------------------------------------------------------------|
|----------------------------------------------------------------|

 |               |               |               |                
|----------------------------------------------------------------|
|----------------------------------------------------------------|
|--------------------------3-------------------------------------|
|5---------------------------------------------------------------|

 |               |               |               |                
|----------------------------------------------------------------|
|----------------------------------------------------------------|
|----------------------------------------------------------------|
|------------------------------------------5-----3---------3-----|

 |               Ugly ducklings don't turn       |                
|----------------------------------------------------------------|
|----------------------------------------------------------------|
|--------------------------3-------------------------------------|
|5---------------------------------------------------------------|

 turn into swans |               |               |                
|----------------------------------------------------------------|
|----------------------------------------------------------------|
|----------------------------------------------------------------|
|----------------------------------------------------------------|

 |               |               |               |                
|----------------------------------------------------------------|
|----------------------------------------------------------------|
|--------------------------3-------------------------------------|
|5---------------------------------------------------------------|

 |               |               |               |                
|----------------------------------------------------------------|
|----------------------------------------------------------------|
|------------------------------------------------3---------------|
|------------------------------------------5---------------------|

 |               |               |               |                
|----------------------------------------------------------------|
|----------------------------------------------------------------|
|--------------------------3-------------------------------------|
|5---------------------------------------------------------------|

 |               |               |               |                
|----------------------------------------------------------------|
|----------------------------------------------------------------|
|----------------------------------------------------------------|
|----------------------------------------------------------------|

 |         You only see the world|               |                
|----------------------------------------------------------------|
|3---------------3---------------3---------------3/--------1-----|
|----------------------------------------------------------------|
|----------------------------------------------------------------|

 you make        |               |               |                
|----------------------------------------------------------------|
|0---------------0---------------0---------0-----0---------------|
|----------------------------------------------------------------|
|----------------------------------------------------------------|

   ( B A S S  S O|L O )          |               |                
|----------------------------------------------------------------|
|----------------------------------------------------------------|
|--------------------------3-----3-------------------------------|
|5---------3-----5-----------------------------------------------|

 |               |               |               |                
|----------------------------------------------------------------|
|----------------------------------------------------------------|
|5---------------------------------------------------------------|
|--------------------------3-----3-------------------------3-----|

 |               |               |               |                
|----------------------------------------------------------------|
|----------------------------------------------------------------|
|--------------------------3-----3-------------------------------|
|5---------3-----5-----------------------------------------------|

 |               |               ( G U I T A R  S|O L O )         
|----------------------------------------------------------------|
|----------------------------------------------------------------|
|5---------3-----5-----------------------------------------------|
|--------------------------3-----3-------------------------3-----|

 |               |               |               |                
|----------------------------------------------------------------|
|----------------------------------------------------------------|
|--------------------------3-----3-------------------------------|
|5---------------------------------------------------------------|

 |               |               |               |                
|----------------------------------------------------------------|
|----------------------------------------------------------------|
|5---------------------------------------------------------------|
|--------------------------3-----3-------------------------3-----|

 |               |               |               |                
|----------------------------------------------------------------|
|----------------------------------------------------------------|
|--------------------------3-----3-------------------------3-----|
|5---------3-----5-----------------------------------------------|

 |               |               |               |                
|----------------------------------------------------------------|
|----------------------------------------------------------------|
|5---------3-----5-----------------------------------------------|
|------------------------------------------3-----3---------------|

 |               |               |               |                
|----------------------------------------------------------------|
|----------------------------------------------------------------|
|--------------------------3-----3-------------------------3-----|
|5---------3-----5-----------------------------------------------|

 |               |               |               |                
|----------------------------------------------------------------|
|----------------------------------------------------------------|
|5---------------------------------------------------------------|
|--------------------------3-----3-----------------------3-------|

 |               |               |               |                
|----------------------------------------------------------------|
|----------------------------------------------------------------|
|--------------------------3-----3-------------------------3-----|
|5---------------5-----------------------------------------------|

 |               |               |               |                
|----------------------------------------------------------------|
|----------------------------------------------------------------|
|5---------3-----5-----------------------------------------------|
|--------------------------3---------------3-----3---------------|

 |               |               |               |                
|----------------------------------------------------------------|
|----------------------------------------------------------------|
|--------------------------3-----------------------------3-------|
|5---------3-----5-----------------------------------------------|

 |               |               |               |                
|----------------------------------------------------------------|
|----------------------------------------------------------------|
|5---------------------------------------------------------------|
|--------------------------3-------------------------------3-----|

 |               |               |               |                
|----------------------------------------------------------------|
|----------------------------------------------------------------|
|--------------------------3-----------------------------3-------|
|5---------3-----5-----------------------------------------------|

 |               |               |               |                
|----------------------------------------------------------------|
|----------------------------------------------------------------|
|5---------3-----5---------------5---------3---------------------|
|--------------------------0---------------------5---------------|

 |               |               |               |                
|----------------------------------------------------------------|
|----------------------------------------------------------------|
|--------------------------3-----3-------------------------------|
|5---------3-----5-----------------------------------------5-----|

 |               |               |               |                
|----------------------------------------------------------------|
|----------------------------------------------------------------|
|5---------------------------------------------------------------|
|--------------------------3-----3-------------------------3-----|

 |               |               |               |                
|----------------------------------------------------------------|
|----------------------------------------------------------------|
|--------------------------3-----3-------------------------3-----|
|5---------3-----5-----------------------------------------------|

 |               |               |               |                
|----------------------------------------------------------------|
|----------------------------------------------------------------|
|5---------------3-----------------------------------------------|
|----------0---------------------3-----3---------5/--------3-----|

 |               are you ready for the           |                
|----------------------------------------------------------------|
|----------------------------------------------------------------|
|----------------------------------------------------------0-----|
|1-------------------------------1---------1-----1---------------|

 thing called love...            |               |                
|----------------------------------------------------------------|
|----------------------------------------------------------------|
|1---------------1---------1-----3---------3-----3---------------|
|----------------------------------------------------------0-----|

 |               |               |               |                
|----------------------------------------------------------------|
|----------------------------------------------------------------|
|----------------------------------------------------------------|
|1---------------1---------------1---------1-----1---------3-----|

 |               |               |               |                
|----------------------------------------------------------------|
|----------------------------------------------------------------|
|1---------1-----1---------1-----3---------3-----3---------------|
|----------------------------------------------------------3-----|

 |               |               |               |                
|----------------------------------------------------------------|
|------------------------------------------3-----0---------------|
|--------------------------------0-------------------------3-----|
|1---------------1---------3-------------------------------------|

 |               |               |               |                
|----------------------------------------------------------------|
|----------------------------------------------------------------|
|1---------------1---------1-----3---------3-----3---------------|
|----------------------------------------------------------3-----|

 |               |               |               |                
|----------------------------------------------------------------|
|----------------------------------------------------------------|
|----------------------------------------------------------------|
|1---------------1---------1-----1---------1-----1---------0-----|

 |               |               |               |                
|----------------------------------------------------------------|
|----------------------------------------------------------------|
|1---------1-----1---------1-----3---------3---------------------|
|------------------------------------------------3---------0-----|

 |               |               |               |                
|----------------------------------------------------------------|
|----------------------------------------------------------------|
|----------------------------------------------------------------|
|1---------------1---------------1---------1-----1---------0-----|

 |               |               |               |                
|----------------------------------------------------------------|
|----------------------------------------------------------------|
|1---------1-----1---------1-----3---------3-----3---------------|
|----------------------------------------------------------0-----|

 |               |               |               |                
|----------------------------------------------------------------|
|----------------------------------------------------------------|
|--------------------------------3/----1---------3/----1---------|
|1---------1-----1---------1---------------1---------------1-----|

 |               |               |               |                
|----------------------------------------------------------------|
|----------------------------------------------------------------|
|1---------1-----1---------1-----3---------3-----0---------------|
|----------------------------------------------------------3-----|

 |               |               |               |                
|----------------------------------------------------------------|
|----------------------------------------------------------------|
|----------------------------------------------------------0-----|
|1---------------1---------------1---------1-----1---------------|

 |               |               |               |                
|----------------------------------------------------------------|
|----------------------------------------------------------------|
|1---------1-----1---------1-----3---------3-----3---------3-----|
|----------------------------------------------------------------|

 |               |               |               |                
|----------------------------------------------------------------|
|----------------------------------------------------------------|
|----------------------------------------------------------0-----|
|1---------------1---------------1---------1-----1---------------|

 |               |               |               |                
|----------------------------------------------------------------|
|----------------------------------------------------------------|
|1---------1-----1---------1-----3---------------0---------------|
|------------------------------------------0---------------0-----|

 |               |               |               |                
|----------------------------------------------------------------|
|----------------------------------------------------------------|
|----------------------------------------------------------------|
|1---------------1---------------1---------1-----1---------0-----|

 |               |               |               |                
|----------------------------------------------------------------|
|----------------------------------------------------------------|
|1---------------1---------1-----3---------3-----3---------------|
|--------------------------------------------------------3-------|

 |               |               |               |                
|----------------------------------------------------------------|
|----------------------------------------------------------------|
|----------------------------------------------------------0-----|
|1---------1-----1---------1-----1---------1-----1---------------|

 |               |               |               |                
|----------------------------------------------------------------|
|----------------------------------------------------------------|
|1---------1-----1---------1-----3---------3-----3---------------|
|----------------------------------------------------------3-----|

 |               |               |               |                
|----------------------------------------------------------------|
|----------------------------------------------------------------|
|----------------------------------------------------------0-----|
|1---------1-----1---------1-----1---------1-----1---------------|

 |               |               |               |                
|----------------------------------------------------------------|
|------------------------------------------------0---------------|
|1---------------1---------1-----3---------3---------------------|
|----------------------------------------------------------0-----|

 |               |               |               |                
|----------------------------------------------------------------|
|----------------------------------------------------------------|
|------------------------------------------------3---------------|
|1---------------1---------1-----3h--------5---------------3-----|

 |               |               |               |                
|----------------------------------------------------------------|
|0---------------0---------0-----2-------------------------------|
|------------------------------------------3-----0---------------|
|----------------------------------------------------------3-----|

 |               |               |               |                
|----------------------------------------------------------------|
|--------------------------------5-------------------------------|
|----------------4---------7-------------------------------------|
|----------5-----------------------------------------------5-----|

 |               |               |               |                
|----------------------------------------------------------------|
|----------------5-----------------------------------------------|
|4---------7-----------------------------------------------------|
|--------------------------------0---------3-----3/--5/--3-1-----|

 |               |               |               |                
|----------------------------------------------------------------|
|--------------------------------5-------------------------------|
|----------------4---------7-------------------------------------|
|----------5-----------------------------------------------5-----|

 |               |               |               |                
|----------------------------------------------------------------|
|----------------5-----------------------7-----------------------|
|4---------7-----------------------------------------------------|
|----------------------------------------------------------------|

 |               |               |               |                
|----------------------------------------------------------------|
|--------------------------------5-------------------------------|
|----------------4---------7-------------------------------------|
|----------5-------------------------------------5---------5-----|

 |               |               |               |                
|----------------------------------------------------------------|
|----------------5-----------------------------------------------|
|4---------7-----------------------------0-----------------0-----|
|----------------------------------------------------------------|

 |               |               |               |                
|----------------------------------------------------------------|
|----------------------------------------------------------------|
|----------------------------------------------------------------|
|----------------------------------------------------------------|


Created with TablEdit http://www.tabledit.com/


_____________________________________________________