´╗┐ r | rainbow | still im sad tab online player | |


  
#-----------------------------PLEASE NOTE-------------------------------------#
#This OLGA file is the author's own work and represents their interpretation  #
#of the song. You may only use this file for private study, scholarship, or   #
#research. Remember to view this file in Courier, or some other monospaced    #
#font. See http://www.olga.net/faq/ for more information.                     #
#-----------------------------------------------------------------------------#

Date: Mon, 30 Jul 2001 17:40:23 -0700 (PDT)
From: Tim Worth 
Subject: r/rainbow/still_im_sad.tab


This is my own work and not derived from copyrighted
material

Author/Artist: Rainbow
Title: Still I'm Sad
Album: Richie Blackmore's Rainbow
Transcribed by: Tim Worth
Email: tworth87@yahoo.com

--------------------------------|---------------------------------------------
--------------------------------|---------------------------------------------
--------------------------------|---------------------------------------------
------2------2------2------2h0--|-------7------5------------------------------
--------------------------------|-----7------5--------------------------------
-0-00---0-00---0-00---0-00------|---5-----3-----------------------------------
 Repeat                                               
                       

------------------------------------------------------------------------------
------------------------------------------------------------------------------
------------------------------------------------------------------------------
-----4-5----4-5-5/7--5-4------------5-----------------------------------------
--7----------------------7-5-5h7----------------------------------------------
------------------------------------------------------------------------------
                                        
indistinguishible                    

------------------------------------------------------------------------------
------------------------------------------------------------------------------
--0--2--4--2-4-4/5-4-2--------------------------------------------------------
-------------------------5-4-2-0----------------------------------------------
-----------------------5------------------------------------------------------
------------------------------------------------------------------------------
                        ??                            
                       

------------------------------------------------------------------------------
------------------------------------------------------------------------------
------------------------------------------------------------------------------
------------------------------------------------------------------------------
------------------------------------------------------------------------------
------------------------------------------------------------------------------
  The rest of the song is an extended solo