´╗┐ p | palmer robert | bad case of loving you btab online player | |


  
#-----------------------------PLEASE NOTE-------------------------------------#
#This OLGA file is the author's own work and represents their interpretation  #
#of the song. You may only use this file for private study, scholarship, or   #
#research. Remember to view this file in Courier, or some other monospaced    #
#font. See http://www.olga.net/faq/ for more information.                     #
#-----------------------------------------------------------------------------#

Date: Tue, 1 Oct 2002 20:30:12 +0200 (CEST)
From: Jan Bj÷rklund 
Subject: p/palmer_robert/bad_case_of_loving_you.btab

robert_palmer/bad_case_of_loving_you.btab

Basstab by Jan Bjorklund, Finland; 
jani_bjorklund@yahoo.se 
You are welcome to request for basstabs!
Bienvenidos a pedirme transcripciones para el bajo!

TablEdited by Jan Bjorklund for Sue
Tuning : E A D G 	Time Signature: 4/4

 |       |       |       |        |       |       |       |        
|--------------------------------|--------------------------------|
|--------------------------------|--------------------------------|
|--------------------------------|--------------------------------|
|0-------0---0---0---0---0---0---|0---0---0---0---0---0---0---0---|

 |       |       |       |        |       |       |       |        
|--------------------------------|--------------------------------|
|--------------------------------|----------------5---------------|
|--------------------------------|--------5---7-------7---5-------|
|0---0---0---0---0---0---0---0-5h|7---7-----------------------3---|

 |       |       |       |        |       |       |       |        
|--------------------------------|--------------------------------|
|--------------------------------|--------------------------------|
|--------------------------------|--------------------------------|
|0-------0---0---0---0---0---0---|0---0---0---0---0---0---0---0---|

 |       |       |       |        |       |       |       |        
|--------------------------------|--------------------------------|
|--------------------------------|----------------5---------------|
|--------------------------------|--------5---7-------7---5-------|
|0---0---0---0---0---0---0---0---|----7-----------------------3---|

 |       |       |       |        |       |       |       |        
|--------------------------------|--------------------------------|
|--------------------------------|--------------------------------|
|--------------------------------|--------------------------------|
|0-------0---0---0---0---0---0---|0---0---0---0---0---0---0---0---|

 |       |       |       |        |       |       |       |        
|--------------------------------|--------------------------------|
|--------------------------------|--------------------------------|
|--------------------------------|--------------------------------|
|0---0---0---0---0---0---0---0---|0---0---0---0---0---0---0---0---|

 |       |       |       |        |       |       |       |        
|--------------------------------|--------------------------------|
|--------------------------------|--------------------------------|
|--------------------------------|--------------------------------|
|5---5---5---5---5---5---5---5---|7---7---7---7---7---7---7---7---|

 |       |       |       |        |       |       |       |        
|--------------------------------|--------------------------------|
|--------------------------------|--------------------------------|
|--------------------------------|--------------------------------|
|0---0---0---0---0---0---0---0---|0---0---0---0---0---0---0---0---|

 |       |       |       |        |       |       |       |        
|--------------------------------|--------------------------------|
|--------------------------------|-these kindo' things go on until|
|--------------------------------|--------------------------------|
|0---0---0---0---0---0---0---0---|--------------------------------|

 |       |       |       |        |       |       |       |        
|--------------------------------|--------------------------------|
|--------------------------------|--------------------------------|
|--------------------------------|--------------------------------|
|0---0---0---0---0---0---0---0---|5-------5---5---5---5---5---5---|

 |       |       |       |        |       |       |       |        
|--------------------------------|--------------------------------|
|--------------------------------|--------------------------------|
|--------------------------------|--------------------------------|
|5---5---5---5---5---5---5---5---|7---7---7---7---7---7---7---7---|

 |       |       |       |        |       |       |       |        
|--------------------------------|--------------------------------|
|--------------------------------|--------------------------------|
|--------------------------------|--------------------------------|
|7---7---7---7---7-------6-------|5-------------------------------|

 |       |       |       |        |       |       |       |        
|--------------------------------|--------------------------------|
|--------------------------------|--------------------------------|
|--------------------------------|--------------------------------|
|5---5---------------------------|0---0---0---0---0---0---0---0---|

 |       |       |       |        |       |       |       |        
|--------------------------------|--------------------------------|
|----------------5---------------|--------------------------------|
|--------5---7-------7---5-------|--------------------------------|
|7---7-----------------------4---|5---5---5---5---5---5---5---5---|

 |       |       |       |        |       |       |       |        
|--------------------------------|--------------------------------|
|--------------------------------|--------------------------------|
|--------------------------------|--------------------------------|
|5---5---5---5---5---5---5---5---|9-------9---9---9---9---9-------|

 |       |       |       |        |       |       |       |        
|--------------------------------|--------------------------------|
|--------------------------------|--------------------------------|
|--------------------------------|--------9---------------9-------|
|7-------7---7---7---7---7---7---|7-----------7---7---7-------7---|

 |       |       |       |        |       |       |       |        
|--------------------------------|--------------------------------|
|--------------------------------|--------------------------------|
|--------------------------------|--------------------------------|
|7---7---7---7---7---7---7---7---|0---0---0---0---0---0---0---0---|

 |       |       |       |        |       |       |       |        
|--------------------------------|--------------------------------|
|--------------------------------|-these kindo' things go on until|
|--------------------------------|--------------------------------|
|0---0---0---0---0---0---0---0---|--------------------------------|

 |       |       |       |        |       |       |       |        
|--------------------------------|--------------------------------|
|--------------------------------|--------------------------------|
|--------------------------------|--------------------------------|
|--------------------0-0-3/4-0-0-|5---5---5---5---5---5---5---5---|

 |       |       |       |        |       |       |       |        
|--------------------------------|--------------------------------|
|--------------------------------|--------------------------------|
|--------------------------------|--------------------------------|
|5---5---5---5---5---5---5---7---|0---0---0---0---0---0---0---0---|

 |       |       |       |        |       |       |       |        
|--------------------------------|--------------------------------|
|--------------------------------|--------------------------------|
|--------------------------------|--------------------------------|
|7---7---7---7---7---7---7---7---|0---0---0---0---0---0---0---0---|

 |       |       |       |        
|--------------------------------|
|--------------------------------|
|--------------------------------|
|0---------------0---------------|


Transcribe! 5.2 transcription http://www.seventhstring.demon.co.uk/
Created with TablEdit http://www.tabledit.com/