´╗┐ p | palmer robert | addicted to love btab online player | |


  
#-----------------------------PLEASE NOTE-------------------------------------#
#This OLGA file is the author's own work and represents their interpretation  #
#of the song. You may only use this file for private study, scholarship, or   #
#research. Remember to view this file in Courier, or some other monospaced    #
#font. See http://www.olga.net/faq/ for more information.                     #
#-----------------------------------------------------------------------------#

Date: Fri, 6 Jun 2003 22:20:42 +0200 (CEST)
From: Jan Bj÷rklund 
Subject: p/palmer_robert/addicted_to_love.btab


Basstab by Jan Bjorklund, Finland; 
jani_bjorklund@yahoo.se 
You are welcome to request for basstabs!
Bienvenidos a pedirme transcripciones para el bajo!


TablEdited by Jan Bjorklund for John
Tuning : E A D G 	Time Signature: 4/4

 tempo 110      (intro)           |       |       |       |        
|--------------------------------|--------------------------------|
|--------0-----------------------|--------0-----------------------|
|----0-------0---3---0-------0---|----0-------0---3---0-------0---|
|------------------------3-------|------------------------3-------|

 |       |       |       |        |       |       |       |        
|--------------------------------|--------------------------------|
|--------------------------------|--------------------------------|
|--------3-------2---------------|--------3-------2---------------|
|----3-------3-------3---1---3---|----3-------3-------3---1---3---|

 |       |       |       |        |       |       |       |        
|--------------------------------|--------------------------------|
|--------0-------------------0---|--------0-------------------0---|
|----0-------0---3---0---3-------|----0-------0---3---0---3-------|
|--------------------------------|--------------------------------|

 |       |       |       |        |       |       |       |        
|--------------------------------|--------------------------------|
|--------0-----------------------|--------0-----------------------|
|----0-------0---3---0-------0---|----0-------0---3---0-------0---|
|------------------------3-------|------------------------3-------|

 |       |       |       |        |       |       |       |        
|--------------------------------|--------------------------------|
|--------0-----------------------|--------0-----------------------|
|----0-------0---3---0-------0---|----0-------0---3---0-------0---|
|------------------------3-------|------------------------3-------|

 |       |       |       |        |       |       |       |        
|--------------------------------|--------------------------------|
|--------------------------------|--------------------------------|
|--------3-------2---------------|--------3-------2---------------|
|----3-------3-------3---1---3---|----3-------3-------3---1---3---|

 |       |       |       |        |       |       |       |        
|--------------------------------|--------------------------------|
|--------0-------------------0---|--------0-------------------0---|
|----0-------0---3---0---3-------|----0-------0---3---0---3-------|
|--------------------------------|--------------------------------|


 |       |       |       |        |       |       |       Another  
|--------------------------------|--------------------------------|
|------------------------and so on until...-----------------------|
|--------------------------------|--------------------------------|
|--------------------------------|--------------------------------|

 kiss    |      is all you        need    |       |        
|--------------------------------|--------------------------------|
|--------0-----------------------|--------0-----------------------|
|----0-------0---3---0-------0---|----0-------0---3---0-----------|
|------------------------3-------|------------------------3---2---|

 |       |       |       |        |       |       |       |        
|--------------------------------|--------------------------------|
|----------------------------0---|------------0-------0-----------|
|--------------------------------|----------------------------0---|
|------------2---2---------------|--------------------------------|

 |       |       |       |        |       |       |       |        
|--------------------------------|--------------------------------|
|--------4-------5-------4-------|--------4-------5-------4-------|
|----0-------0-------0-------0---|----0-------0-------0-----------|
|--------------------------------|----------------------------2---|

 |       |       |       |        |       |       |       |        
|--------------------------------|--------------------------------|
|----------------------------0---|------------0---0---------------|
|--------------------------------|--------------------------------|
|------------2---2---------------|--------------------------------|

 |       |       |       |        |       |       |       |        
|--------------------------------|10h-11--------------------------|
|0-------------------------------|--------0-------2-------2-------|
|--------------------------------|--------------------------------|
|--------------------------------|--------------------------------|

 |       |       |       |        |       |       |       |        
|--------------------------------|--------------------------------|
|--------0-----------------------|---------and so on......--------|
|----0-------0---3---0-------0---|--------------------------------|
|------------------------3-------|--------------------------------|


Transcribe! 6.0 transcription http://www.seventhstring.demon.co.uk/
Created with TablEdit http://www.tabledit.com/


_____________________________________________________