´╗┐ n | nsync | gone tab online player | |


  
#-----------------------------PLEASE NOTE-------------------------------------#
#This OLGA file is the author's own work and represents their interpretation  #
#of the song. You may only use this file for private study, scholarship, or   #
#research. Remember to view this file in Courier, or some other monospaced    #
#font. See http://www.olga.net/faq/ for more information.                     #
#-----------------------------------------------------------------------------#

From: ".[-Vagrant-] ." 
Subject: n/nsync/gone.tab
Date: Tue, 01 Jan 2002 19:40:07 -0500

Artist     : N'Sync
Song name  : Gone
Album      : Celebrety
Sender     : Yanik Rouleau
E-mail     : xvagrantx@hotmail.com


This is the start of the song.I'll try to fing out more but I at least you 
can enjoy the beginning.

Emaj7                Bmj7                D#m          C#m
|                    |                   |            |            |
|--------7-----------|--------2----------|--------6---|--------4---|
|------9-------------|------4------------|------7-----|------5-----|
|----8---------------|----3--------------|----8-------|----6-------|
|--9-----------------|--4----------------|--8---------|--6---------|
|7-------------------|2------------------|6-----------|4-----------|
|--------------------|-------------------|------------|------------|
There's a thousand words that I could say to make you come home ...

|___________________________________________________|


and I also found the End of the song

|--------------------------------------|
|-----------7h8h5----------------------|
|----------------7-6-4/3---------------|
|------------------------4-------------|
|--------------------------------------|
|--------------------------------------|

I hope you enjoy
and Happy New year 2002!