´╗┐ n | nada surf | the manoeuvers tab online player | |


  
#-----------------------------PLEASE NOTE-------------------------------------#
#This OLGA file is the author's own work and represents their interpretation  #
#of the song. You may only use this file for private study, scholarship, or   #
#research. Remember to view this file in Courier, or some other monospaced    #
#font. See http://www.olga.net/faq/ for more information.                     #
#-----------------------------------------------------------------------------#

Date: Sat, 16 Aug 2003 11:08:45 +0200
From: Bounav 
Subject: n/nada_surf/the_manoeuvers.tab

====================================================
Song  : The manoeuvres
Band  : NadaSurf
Album : North 6th Street

Tabbed by : Bounav (bounav@free.Fr)

It takes me a while but here is it.
I found a wrong chord/tab  version on the internet...
>> This one sounds really good !
Comments/corrections are welcome...

Standard tuning : E-A-B-G-D-e

@ means 13
# means 12
~ means 11
% means 10

Intro & Verse:

e|--------------------------------------------|
B|-#--#-##@#--%--%%%%%%---8--8---888-8--88888-|
G|-#--#-####--~--~~~~~~---0--0---000-9--99999*|
D|-%--%-%%%%--#--######---9--9---999-9--99999*|
A|-#--#-####--#--######---%--%---%%%-7--77777-|
E|--------------------------------------------|
Feel free to play the e string 'empty' any time ;)
it sound great on an acoustic guitar...

Now just the chord progression (it's just easier to read ;) :

e|----------------------------------(7)-------|
B|-12----1312-10----------8----------8--------|
G|-12---------11----------0----------9--------|
D|-10---------12----------9----------9--------|
A|-12---------12----------10---------7--------|
E|--------------------------------------------|

> you can also play ---- instead of the first cord...
                    -12- (I prefer the first way...)
                    -12-
                    -14-
                    -14-
                    ----

> on the second verse you play -11- in 'midle' of the
                               -10-    third chord
                               ----
                               -12-
                               -12-
                               ----
Chorus:
   C      D      D?     G      G      D      D?     D
e|-3------5------5------3----|-3------0------5------3----|
B|-5------7------6------3----|-3------7------6------5----|
G|-5------7------5------4----|-4------7------5------5----|
D|-5------7------7------5----|-5------7------7------5----|
A|-3------5------5------5----|-5------5------5------3----|
E|----------------------3----|-3-------------------------|
(only chord progression is written here)

You can end the song with this kind of D instead : -32013