´╗┐ n | nada surf | deeper well btab online player | |


  
#-----------------------------PLEASE NOTE-------------------------------------#
#This OLGA file is the author's own work and represents their interpretation  #
#of the song. You may only use this file for private study, scholarship, or   #
#research. Remember to view this file in Courier, or some other monospaced    #
#font. See http://www.olga.net/faq/ for more information.                     #
#-----------------------------------------------------------------------------#

From: "Adam Calamar" 
Subject: n/nada_surf/deeper_well.btab
Date: Mon, 14 Jan 2002 23:02:44 -0800

Artist : Nada Surf
Album  : High/Low
Song   : Deeper Well

BASS TAB

INTRO

|---|------------|
|---|--(8 bars)--|
|---|--(guitar)--|
|---|------------|

                      play 4 times
|2-2-2-5---x-7---|--7-7-7-7-7-7-7-| |
|------------0---|--0-0-0-0-0-0-0-|.|
|----------------|----------------|.|
|----------------|----------------| |

(band enter)

|----------------|----7---7---7---|----------------|----7---7---7---|
|----------------|----------------|----------------|----------------|
|0-0-0-3---x-5---|--5---5---5---5-|0-0-0-3---x-5---|--5---5---5---5-|
|----------------|----------------|----------------|----------------|

|----------------|----7-------5-7-|----------------|----7---7---7---|
|----------------|--------5-7-----|----------------|----------------|
|0-0-0-3---x-5---|--5---5---------|0-0-0-3---x-5---|--5---5---5---5-|
|----------------|----------------|----------------|----------------|

VERSE

                      play 8 times
|----------------|----------------| |
|----------------|----------------|.|
|0-0-0-3---x-5---|--5-5-5-5-5-5-5-|.|
|----------------|----------------| |

PRE-CHORUS

|----------------|----------------|----------------|----------------|
|----------------|----------------|----------------|----------------|
|3---3---3-3-3-5-|----5---5-5-5---|3---3---3-3-3-5-|----5---5-5-5---|
|----------------|----------------|----------------|----------------|

|----------------|----------------|
|----------------|----------------|
|3---3---3-3-3-5-|----5-5-5-5-5---|
|----------------|----------------|

CHORUS

|----------------|----------------|----------------|----------------|
|----------------|----------------|----------------|----------------|
|5---5---5-5-5-3-|----3---3-3-3---|--------------5-|----5---5-5-5-3-|
|----------------|--------------3-|----3---3-3-3---|----------------|

|----------------|----------------|----------------|
|----------------|----------------|----------------|
|----3---3-3-3---|--------------5-|----3---3-3-3---|
|--------------3-|----3---3-3-3---|----------------|

-play the "band enter" part again (note:  fills vary!)
-play the VERSE again
-play the PRE-CAHORUS again

2nd CHORUS

|----------------|----------------|----------------|----------------|
|----------------|----------------|----------------|----------------|
|5---5---5-5-5-3-|----3---3-3-3---|--------------5-|----5---5-5-5-3-|
|----------------|--------------3-|----3---3-3-3---|----------------|


|----------------|----------------|----------------|----------------|
|----------------|----------------|----------------|----------------|
|----3---3-3-3---|--------------5-|----5---5-5-5-3-|----3---3-3-3---|
|--------------3-|----3---3-3-3---|----------------|--------------3-|

|----------------|----------------|----------------|
|----------------|----------------|----------------|
|--------------5-|----5---5-5-5-3-|----3---3-3-3-3-|
|----3---3-3-3---|----------------|----------------|

BRIDGE

|5^4-5^4-5^4-5^4-|7^6-7^6-7^6-7^6-|----------------|5^4-5^4-5^4-5^4-|
|----------------|----------------|7^6-7^6-7^6-7^6-|----------------|
|----------------|----------------|----------------|----------------|
|----------------|----------------|----------------|----------------|

|7^6-7^6-7^6-7^6-|----------------|5^4-5^4-5^4-5^4-|7^5-7^6-7^6-7^6-|
|----------------|7^6-7^6-7^6-7^6-|----------------|----------------|
|----------------|----------------|----------------|----------------|
|----------------|----------------|----------------|----------------|

GUITAR SOLO: play "band enters" riff

|----------------|----------------|----------------|----------------|
|----------------|----------------|----------------|----------------|
|0-0-0-3---x-5---|--5-5-5-5-5-5-5-|0-0-0-3---x-5---|--5-5-5-5-5-5-5-|
|----------------|----------------|----------------|----------------|

3rd VERSE: play 4 bars only of VERSE

3rd CHORUS/OUTRO

|----------------|----------------|----------------|----------------|
|----------------|----------------|----------------|----------------|
|5---5---5-5-5-3-|----3---3-3-3---|--------------5-|----5---5-5-5-3-|
|----------------|--------------3-|----3---3-3-3---|----------------|


|----------------|----------------|----------------|----------------|
|----------------|----------------|----------------|----------------|
|----3---3-3-3---|--------------5-|----5---5-5-5-3-|----3---3-3-3---|
|--------------3-|----3---3-3-3---|----------------|--------------3-|

|----------------|----------------|----------------|----------------|
|----------------|----------------|----------------|----------------|
|--------------5-|----5---5-5-5-7-|----7---7-7-7---|--------------5-|
|----3---3-3-3---|----------------|--------------3-|----3---3-3-3---|



|----------------|----------------|----------------|----------------|
|----------------|----------------|----------------|----------------|
|----5---5-5-5-3-|----3---3-3-3---|--------------5-|----5---5-5-5-7-|
|----------------|--------------3-|----3---3-3-3---|----------------|

|----------------|----------------|----------------|----------------|
|----------------|----------------|----------------|----------------|
|----7---7-7-7---|--------------5-|----5---5-5-5-3-|----3---3-3-3---|
|--------------3-|----3---3-3-3---|----------------|--------------3-|

|----------------|----------------|----------------|----------------|
|----------------|----------------|----------------|----------------|
|--------------5-|----5---5-5-5-7-|----7---7-7-7---|--------------5-|
|----3---3-3-3---|----------------|--------------3-|----3---3-3-3---|

|----------------|----------------|----------------------|
|----------------|----------------|----------------------|
|----5---5-5-5-7-|----7---7-7-7-10|----10----10-10-10-12-|
|----------------|----------------|----------------------|

(now it starts getting messy (bars are same length as others)

|------------------------|------------------------|
|------------------------|------------------------|
|12-12-12-12-12-12-12-14-|14-14-14-14-14-14-14-15-|
|------------------------|------------------------|

|------------------------|
|------------------------|
|15-15-15-15-15-15-15-17-|
|------------------------|


|------------------------|------------------------|
|------------------------|------------------------|
|17-17-17-17-17-17-17-17-|17-17-17-17-17-17-17-17-|
|------------------------|------------------------|

|------------------------|
|------------------------|
|17-17-17-17-17-17-17-17-|
|------------------------|

|------------------------|------------------------|
|------------------------|------------------------|
|17-17-17-17-17-17-17-17-|17-17-17-17-17-17-17-15-|
|------------------------|------------------------|

|------------------------|
|------------------------|
|15-15-15-15-15-15-15-14-|
|------------------------|


|------------------------|----------------|
|---------------------0--|0-0-0-0-0-0-0---|
|14-14-14-14-14-14-14----|--------------15|
|------------------------|----------------|

|------------------------|
|------------------------|
|15-15-15-15-15-15-15-14-|
|------------------------|

|------------------------|------------------------|
|------------------------|------------------------|
|14-14-14-14-14-14-14-12-|12-12-12-12-12-12-12-10-|
|------------------------|------------------------|

|------------------------|
|------------------------|
|10-10-10-10-10-10-10-5--|
|------------------------|

|----------------|----------------|----------------|----------------|
|----------------|----------------|----------------|----------------|
|5-5-5-5-5-5-5-3-|3-3-3-3-3-3-3---|--------------5-|5-5-5-5-5-5-5-7-|
|----------------|--------------3-|3-3-3-3-3-3-3---|----------------|

|----------------|------------------------|----------------||
|----------------|------------------------|----------------||
|7-7-7-7-7-7-7-7-|10-10-10-10-10-10-10-10-|5===============||
|----------------|------------------------|----------------||

Thats it.
This is my own work.