m | misfits | saturday night tab online player | |


  
#-----------------------------PLEASE NOTE-------------------------------------#
#This OLGA file is the author's own work and represents their interpretation  #
#of the song. You may only use this file for private study, scholarship, or   #
#research. Remember to view this file in Courier, or some other monospaced    #
#font. See http://www.olga.net/faq/ for more information.                     #
#-----------------------------------------------------------------------------#

Date: Wed, 18 Jun 2003 23:48:17 EDT
From: MaxWoz@cs.com
Subject: m/misfits/saturday_night.tab

Saturday Night
by The Misfits
from the album, Famous Monsters

NOTE: This song was recorded in Eb tuning, but it can be done in standard
tuning, as F is the lowest note played.

The following song was based on a song by a Horror Punk band from
Chapel Hill, NC, called Psycho 13. It was on a demo, that was
sent to the Misfits, shortly before the release of Famous Monsters.

INTRO:

e-----------------------------------------------------
B-----------------------------------------------------
G-3/6-------------------------------------------------
D-3/6-----------8------------4------------6-----------
A-1/4-----------8------------4------------6-----------
E---------------6------------2------------4-----------

FIRST SOLO:

D-------------------------------------------------------------
A-4-4/8-8/6-6/4-4/6-6/8-8/4-4/8-4/6-6/8-8/4-4/3-3/4-4/6-6-6/4-
E-------------------------------------------------------------

(Play this on top of the verse riff. The last note is held
out for the length of the first chord in the first verse)

VERSE:

e-----------------------------------------------------------------
B-----------------------------------------------------------------
G-666-666-666-666-------------------------------------------------
D-666-666-666-666-888-888-888-888-444-444-444-444-666-666-666-666- (3X)
A-444-444-444-444-888-888-888-888-444-444-444-444-666-666-666-666-
E-----------------666-666-666-666-222-222-222-222-444-444-444-444-
There's 52 ways to murder...

CHORUS:

e-------------------------------------------------
B-------------------------------------------------
G---------------------------------666-666-666-666-
D-444-444-444-444-666-666-666-666-666-666-666-666- (2X)
A-444-444-444-444-666-666-666-666-444-444-444-444-
E-222-222-222-222-444-444-444-444-----------------
I can't remember when I...

e-----------------------------------------------------------------
B-----------------------------------------------------------------
G-----------------------------------------------------------------
D-444-444-444-444-666-666-666-666-333-333-333-333-444-444-444-444-
A-444-444-444-444-666-666-666-666-333-333-333-333-444-444-444-444-
E-222-222-222-222-444-444-444-444-111-111-111-111-222-222-222-222-
But the backseat of the drive-in...

e---------------------------------
B---------------------------------
G---------------------------------
D-444-444-444-444-666-666-666-666-
A-444-444-444-444-666-666-666-666-
E-222-222-222-222-444-444-444-444-
I know when you're home

e-----------------------------------------------------------------
B-----------------------------------------------------------------
G-666-666-666-666---------------------------------666-666-666-666-
D-666-666-666-666-888-888-888-888-444-444-666-666-666-666-666-666- (2X)
A-444-444-444-444-888-888-888-888-444-444-666-666-444-444-444-444-
E-----------------666-666-666-666-222-222-444-444-----------------
I was thinking about you...

SECOND SOLO:

D-----------------------------------------------------------
A-4-4/8-8/6-6/4-4/6-6/8-8/4-4/8-4/6-6/8-8/4-4/3-3/4-4/6-6-6-
E-----------------------------------------------------------

(Play this on top of the next verse riff. The last note is
held out for the length of the first chord in the next verse)

VERSE: (Everything moves up a whole step)

e-----------------------------------------------------------------------------
B-----------------------------------------------------------------------------
G-888-888-888-888-------------------------------------------------------------
D-888-888-888-888-101010-101010-101010-101010-666-666-666-666-888-888-888-888-
(2X)
A-666-666-666-666-101010-101010-101010-101010-666-666-666-666-888-888-888-888-
E-----------------8-8-8--8-8-8--8-8-8--8-8-8--444-444-444-444-666-666-666-666-
As the moon becomes the...

CHORUS:

e-------------------------------------------------
B-------------------------------------------------
G---------------------------------888-888-888-888-
D-666-666-666-666-888-888-888-888-888-888-888-888- (2X)
A-666-666-666-666-888-888-888-888-666-666-666-666-
E-444-444-444-444-666-666-666-666-----------------
I can't remember when I...

e-----------------------------------------------------------------
B-----------------------------------------------------------------
G-----------------------------------------------------------------
D-666-666-666-666-888-888-888-888-555-555-555-555-666-666-666-666-
A-666-666-666-666-888-888-888-888-555-555-555-555-666-666-666-666-
E-444-444-444-444-666-666-666-666-333-333-333-333-444-444-444-444-
But the backseat of the drive-in...

e---------------------------------
B---------------------------------
G---------------------------------
D-666-666-666-666-888-888-888-888-
A-666-666-666-666-888-888-888-888-
E-444-444-444-444-666-666-666-666-
I know when you're home...

e-----------------------------------------------------------------------------
B-----------------------------------------------------------------------------
G-888-888-888-888---------------------------------------------888-888-888-888-
D-888-888-888-888-101010-101010-101010-101010-666-666-888-888-888-888-888-888-2X
A-666-666-666-666-101010-101010-101010-101010-666-666-888-888-666-666-666-666-
E-----------------8-8-8--8-8-8--8-8-8--8-8-8--444-444-666-666-----------------
I was thinking about you...
(Play last chord for half as long, the second time around)

END:

e-------------------------------------------------
B-------------------------------------------------
G-----------------------------------------888-888-
D-------101010-101010-----666-666-888-888-888-888-
A-------101010-101010-----666-666-888-888-666-666-
E-11-10-8-8-8--8-8-8--8-6-444-444-666-666---------
Yeah, yeah, yeah
e---------------------------------------
B---------------------------------------
G-----------------------------------8---
D-------10----------6-------8-------8---
A-------10----------6-------8-------6---
E-11-10-8-------8-6-4-------6-----------
Crying on Saturday Night


That's the jist of it. Be careful with the solo-listen for the rhythm of
it.
Also, listen for slides, like in the "backseat of the drive-in" part and
for
transitional notes between chords.
The rhythm is standard doo-wop style (listen to "Earth Angel" by the
Penguins).
Pay attention to which parts are palm muted, and which aren't. And
remember
Psycho 13. Go scare someone.
 -Maxwell Malice