´╗┐ m | meters | cissy strut tab online player | |


  
#-----------------------------PLEASE NOTE-------------------------------------#
#This OLGA file is the author's own work and represents their interpretation  #
#of the song. You may only use this file for private study, scholarship, or   #
#research. Remember to view this file in Courier, or some other monospaced    #
#font. See http://www.olga.net/faq/ for more information.                     #
#-----------------------------------------------------------------------------#

Date: Fri, 14 Mar 2003 18:56:23 +0000
From: leo stewart 
Subject: m/meters/cissy_strut.tab 

CISSY_STRUT.TAB
Cissy Strut by The Meters from the album The Meters.
Transcribed Transcribed by JimStewart@mail.utexas.edu
by edited by leo


Song format:
0. Say "Ahhhhhhh YA" with building volume
1. Play part One four times, then play part Two four times
2. Repeat Step One
3.- Play part three.  That's the Chord Leo is playing, but find the rhythm
4. Play Part Two four times
5. Repeat Step 1.
6. The song fades out with part One being played twice.



Part One
e:--------------------|
B:--------------------|
G:--------------------|
D:10p8----------------|
A:------10------------|
E:---------13b(14)-10-|

e:-------------------------------------------|
B:--------------------11-11----10--10----|
G:--------------------10-10----10--10----|
D:--------------------12-12----10--10----|
A:-------------------------------------------|
E:8--10--8--10-(10)-----------------------|

Part Two
e:------------------------------------------------|
B:------------------------------------------------|
G:------------------------------------------------|
D:-------------------------10---10p-8----10--8--|
A:------------------------------------------------|
E:------------------------------------------------|


e:----------------------|
B:----------------------|
G:----------------------|
D:--10--8--10p8---------|
A:---------------10-----|
E:-------------------8--|

Part Three
e: 8
B: 8
G: 8
D: 7
A: 8
E: X





_________________________________________________________________
It's fast, it's easy and it's free. Get MSN Messenger today! 
http://messenger.msn.co.uk

Date: Mon, 26 Jul 2004 15:46:25 +1000
From: Louis Rudner 
Subject: m/meters/cissy_strut.tab

The Meters
Cissy Strut

Tabbed By Getafix99

I Love The meters and its a shame not a lot of people know about them, as
others have said.  I wrote this tab for you all to enjoy so enjoy???

I have read the other TAB of this song and to me and my musical friends
it sounds slightly off so i tabbed it myself.

Riff 1
e|------------------------8--8--6--8----|
B|------------------------8--8--6--8----|
G|5-3------------------------------------|
D|----5-1-----------------------------x4|
A|----------3-3-1-3---3-----------------|
E|--------------------------------------------|

 

Riff 2

e|------------------------------------------------|
B|------------------------------------------------|
G|5--3-5-3--5-3-------5--3-5-3------------|
D|---------------------------------------1---x4-|
A|-----------------------------------------------|
E|-----------------------------------------------|

________________________________________________________________________________