´╗┐ m | meters | cissy st tab online player | |


  
#----------------------------------PLEASE NOTE---------------------------------#
#This file is the author's own work and represents their interpretation of the #
#song. You may only use this file for private study, scholarship, or research. #
#------------------------------------------------------------------------------##
CISSY_STRUT.TAB

Cissy Strut by The Meters from the album The Meters.  

This TAB transcription was created using TAB MASTER version 1.0

Transcribed by JimStewart@mail.utexas.edu



Song format: 

0. Say "Ahhhhhhh YA" with building volume

1. Play part One four times, then play part Two four times

2. Repeat Step One

3. Play part three.  That's the Chord Leo is playing, but find the rhythm

4. Play Part Two four times

5. Repeat Step 1.

6. The song fades out with part One being played twice.



It is of course possible that something here is wrong.  Please Email me any 

corrections that you consider necessary.  Funkify Your Life! 





Part One

e:--------------------|

B:--------------------|

G:--------------------|

D:10p8----------------|

A:------10------------|

E:---------13b(14)-10-|



e:--------------------10-10--8-8--|

B:--------------------10-10--8-8--|

G:--------------------10-10--8-8--|

D:--------------------------------|

A:--------------------------------|

E:8--10--8--10-(10)---------------|



Part Two

e:------------------------------------------------|

B:------------------------------------------------|

G:------------------------------------------------|

D:----------------------------10--8--10--8--10--8-|

A:------------------------------------------------|

E:------------------------------------------------|

			   



e:----------------------|

B:----------------------|

G:----------------------|

D:--10--8--10p8---------|

A:---------------10-----|

E:-------------------8--|



Part Three

e: 8

B: 8

G: 8

D: 7

A: 8

E: X