´╗┐ m | magic dirt | competition girl crd online player | |


  
#-----------------------------PLEASE NOTE-------------------------------------#
#This OLGA file is the author's own work and represents their interpretation  #
#of the song. You may only use this file for private study, scholarship, or   #
#research. Remember to view this file in Courier, or some other monospaced    #
#font. See http://www.olga.net/faq/ for more information.                     #
#-----------------------------------------------------------------------------#

Date: Tue, 30 Sep 2003 14:25:40 +1000
From: Steve Brady 
Subject: m/magic_dirt/competition_girl.crd

Artist : Magic Dirt
Track  : Competition Girl
Album  : What Are Rockstars Doing Today?
Tab By : Andy Brady(bluesexplosionman@hotmail.com
 
Intro/Verse
[0:04] Guit 1
e ------------------------------
B ------------------------------
G ------------------------------
D -----5-8-5-------5-8\1-1------
A -----5-8-5-------5-8\1-1------
E -----5-8-5-------5-8\1-1------
[0:03] Guit 2
e ------------------------------
B ------------------------------
G ---7-7-7-7---7-7-7-7\3-3---7-7
D --5--5-5-5--5----5-5\1-1--5---
A ------------------------------
E ------------------------------
 

[0.36] Bridge
And suddenly all your....
e ---------------------------------------------
B ---------------------------------------------
G ---------------------------------------------
D --1--1-1-1--1-1-1--1-1-3--3-3-3--3-3-3--3-3--
A --1--1-1-1--1-1-1--1-1-3--3-3-3--3-3-3--3-3--
E --1--1-1-1--1-1-1--1-1-3--3-3-3--3-3-3--3-3--
 
[0:53] Guit 1
e ------------------
B ------------------
G --3-3-----3-3-----
D --3-3--3--3-3--1--
A --1-1--3--1-1--1--
E -------3-------1--
Guit 2 There's another guit part here....hard to hear enough 2 tab it.
       sounds pretty easy
 
[2:30] Fill
 I'm sick of some....
e ----------
B ----------
G ----------
D --1----3--
A --1----3--
E --1----3--
 
That's pretty much it. There's more lead bits in there, but Raul's a
pretty
trippy guitarist and they're hard to hear under Ad's chords. Just play
summin
similar.