l | love courtney | mono crd online player | |


  
#-----------------------------PLEASE NOTE-------------------------------------#
#This OLGA file is the author's own work and represents their interpretation  #
#of the song. You may only use this file for private study, scholarship, or   #
#research. Remember to view this file in Courier, or some other monospaced    #
#font. See http://www.olga.net/faq/ for more information.                     #
#-----------------------------------------------------------------------------#

Date: Sun, 25 Jul 2004 21:43:24 -0700
From: Alexandre Reis 
Subject: l/love_courtney/mono.crd

#-----------------------------------------------------------------------------#
#-- File created with Instab - http://www.pconline.com/~smcarey/instab.html --#
#-----------------------------------------------------------------------------#

Author/Artist: Courtney Love
Title: Mono
Album: Americas Sweetheart
Transcribed by: Alexandre Reis
Email: Alexandre@silverchair.nu

Easy, but great song! Standard Tunning

Verse
------------------------------------------------------------------------------
------------------------------------------------------------------------------
--9-9-x---------------12-12-12-12-12-12-12------------------------------------
--9-9-x-9-9-x-12-12-x-12-12-12-12-12-12-12------------------------------------
--7-7-x-9-9-x-12-12-x-10-10-10-10-10-10-10------------------------------------
--------7-7-x-10-10-x---------------------------------------------------------
                                                                              

------------------------------------------------------------------------------
------------------------------------------------------------------------------
--9-9-x-----------------------------------------------------------------------
--9-9-x-9-9-x-12-12-x-5-5-5-5-5-5-5-------------------------------------------
--7-7-x-9-9-x-12-12-x-5-5-5-5-5-5-5-------------------------------------------
--------7-7-x-10-10-x-3-3-3-3-3-3-3-------------------------------------------
                                                                              
pre-chorus
------------------------------------------------------------------------------
------5-----------7-----------------------------------------------------------
----5-----------7-------------------------------------------------------------
------------------------------------------------------------------------------
--3-----------5---------------------------------------------------------------
------------------------------------------------------------------------------
                                                                              
chorus (heres the chords, youll have to get the rithm)
------------------------------------------------------------------------------
------------------------------------------------------------------------------
------------------------------------------------------------------------------
--2------------------------------------7--------------------------------------
--2------------------------------------7--------------------------------------
--0------------------------------------5--------------------------------------
                                                                              

------------------------------------------------------------------------------
------------------------------------------------------------------------------
--5------------------------------------7--------------------------------------
--5------------------------------------7--------------------------------------
--3------------------------------------5--------------------------------------
------------------------------------------------------------------------------
                                                                              
post-chorus(all in PM)              (_______not in the first chorus________)
------------------------------------------------------------------------------
------------------------------------------------------------------------------
--5-5-5-5-5-5-5-5--7-7-7-7-7-7-7-7--9-9-9-9-9-9-9-9--11-11-11-11-11-11-11-11--
--5-5-5-5-5-5-5-5--7-7-7-7-7-7-7-7--9-9-9-9-9-9-9-9--11-11-11-11-11-11-11-11--
--3-3-3-3-3-3-3-3--5-5-5-5-5-5-5-5--7-7-7-7-7-7-7-7--9--9--9--9--9--9--9--9---
------------------------------------------------------------------------------
                                                                             
Bridge 4X                                      (In the end of bridge)
------------------------------------------------------------------------------
------------------------------------------------------------------------------
--4---4---4---7-----------------------------------7-7-7-7-7-7-7---------------
--4-5-4-5-4-2-7-----------------------------------7-7-7-7-7-7-7---------------
--2-5-2-5-2-2-5-----------------------------------5-5-5-5-5-5-5---------------
----3---3---0-----------------------------------------------------------------
                                                                              
The song goes like:
Verse
pre-chorus
chorus
post-chorus
verse
Verse
pre-chorus
chorus
post-chorus (complete)
Bridge
Chorus
post-chorus (complete)

Thats it! Feel free to send any suggestions or corrections to Alexandre@silverchair.nu