´╗┐ l | living colour | cult of personality tab online player | |


  
#-----------------------------PLEASE NOTE-------------------------------------#
#This OLGA file is the author's own work and represents their interpretation  #
#of the song. You may only use this file for private study, scholarship, or   #
#research. Remember to view this file in Courier, or some other monospaced    #
#font. See http://www.olga.net/faq/ for more information.                     #
#-----------------------------------------------------------------------------#

Date: Sun, 5 Oct 2003 13:22:24 +0200
From: Manuel Veronesi 
Subject: l/living_colour/cult_of_personality.tab
Date: Sun, 28 Dec 1997 12:24:39 +0100
From: Anand Kumar 
 
LIVING COLOR
"Cult Of Personality"
written by Vernon Reid, Corey Glover, William Calhoun and Muzz Skillings
from the CBS-Album "Vivid"
transcribed by Anand Kumar (st001904@hrz1.hrz.tu-darmstadt.de;
HalfIndy@aol.com)
revised by Manuel Veronesi (eimols@libero.it)
 

Riff 1 (4/4)
 
e--------------------------------I
b--------------------------------I
g--------------------------------I
D----3p0---2-----3p0---2-2-------I
A--------------------------------I
E--3-----3-----3-----3-----------I
   1   +   2   +   3   +   4  +
 
Riff 2 (3/4)
 
e--------------------------I
b--------------------------I
g-----------0----2---------I
D----3p0-----3p2---3p2-----I
A----------------------3p2-I
E--3-----3-----------------I
   1   +   2   +   3   +
 
Riff 3 (3/4)
 
e--------------------------I
b--------------------------I
g----------2-----5p4p0-----I
D----3p0-----3p2-------3p0-I
A--------------------------I
E--3-----3-----------------I
   1   +   2   +   3   +
 
That┤s basically all...
Here┤s the beginning of the song right to the first chorus (commas divide
bars).
 
Intro:
 
4xRiff 1, Riff 2, 2xRiff 1
 
Verse:
 
2xRiff 1, B5 F5, 5xRiff 1, B5 C5, 3xRiff 1
 
Prechorus:
 
B5 F5, Riff 1, B5 C5, Riff 2, Riff 3, Riff 2, Riff 3
 
Chorus:
 
B5 F5, C5 G5, D5 Dmaj7, F5 C5
B5 F5, C5 G5, D5 Dmaj7, F5 C5
 
and so on...
 
He plays G blues all the time, sounds very jazzy however.
At the end of the (fast) Outro he repeats 4 notes of Riff 3.
 
lyrics as in the CD booklet:
 
verse
Look into my eyes, what do ....