l | less than jake | mixology of tom collins crd online player | |


  
#-----------------------------PLEASE NOTE-------------------------------------#
#This OLGA file is the author's own work and represents their interpretation  #
#of the song. You may only use this file for private study, scholarship, or   #
#research. Remember to view this file in Courier, or some other monospaced    #
#font. See http://www.olga.net/faq/ for more information.                     #
#-----------------------------------------------------------------------------#

Date: Wed, 4 Sep 2002 23:23:49 -0700
From: the cheez 
Subject: l/less_than_jake/mixology_of_tom_collins.crd

Song: Mixology of Tom Collins
Artist: Less Than Jake
Album: Pez Collection/Goodbye Blue and White
Tabbed By: Michael Baker (thecheez@hotmail.com)

This is probably one of my favourite LTJ songs and it isn't too hard to
play either. This is all my own and as far as i know its all correct, so
enjoy!

-=the cheez=-

///////////////////////////////////////////////////////////////////////////

INTRO pt1 (0:00) - Distorted

|Repeat X2
|---------------------------------------
|---------------------------------------
|-7--------7------------5--------5------
|-7(hold)--7-5--------5-5(hold)--5-7--5-
|-5--------5-5(hold)--5-3--------3-7--5-
|------------3--------3------------5--3-
...friend...mine.......pointed....me
.who......become.......not........person

///////////////////////////////////////////////////////////////////////////

INTRO pt2 (0:10) - Distorted

|Repeat X2
|---------------------------------------------------------------
|---------------------------------------------------------------
|-7-7--7/9-9--9/12-12--12\11-11--11-----------------------------
|-7-7--7/9-9--9/12-12--12\11-11--11-10-10--10\9-9--9\7-7--7\5-5-
|-5-5--5/7-7--7/10-10--10\-9--9---9-10-10--10\9-9--9\7-7--7\5-5-
|------------------------------------8--8---8\7-7--7\5-5--5\3-3-
be

|Repeat X1
|--------------------------
|--------------------------
|--------------------------
|-5-5--5-5-5--5-5-5--5-5-5-
|-5-5--5-5-5--5-5-5--5-5-5-
|-3-3--3-3-3--3-3-3--3-3-3-
 ' '
///////////////////////////////////////////////////////////////////////////

VERSE 1 (0:22) Clean

First half is bass and drums only

|Repeat X1
|-X--5--5--5--X--5--X--5--X--5--X--5--X--5--X--5--X--5-
|-X--7--7--7--X--7--X--5--X--5--X--7--X--7--X--7--X--7-
|-X--7--7--7--X--7--X--6--X--6--X--7--X--7--X--7--X--7-
|-X--7--7--7--X--7--X--7--X--7--X--7--X--7--X--7--X--7-
|-X--5--5--5--X--5--X--7--X--7--X--5--X--5--X--5--X--5-
|-X-----------X-----X--5--X--5--X-----X-----X-----X----
and now i think...

|Repeat X2
|-X--5--X--5--X--5--X--5--X--5--X--5--X--5--X--5-
|-X--7--X--7--X--5--X--5--X--7--X--7--X--7--X--7-
|-X--7--X--7--X--6--X--6--X--7--X--7--X--7--X--7-
|-X--7--X--7--X--7--X--7--X--7--X--7--X--7--X--7-
|-X--5--X--5--X--7--X--7--X--5--X--5--X--5--X--5-
|-X-----X-----X--5--X--5--X-----X-----X-----X----

|Repeat X1
|-X--5--X--5--X--5--X--5--X--5--X--5--X--5--5--5-
|-X--7--X--7--X--5--X--5--X--7--X--7--X--7--7--7-
|-X--7--X--7--X--6--X--6--X--7--X--7--X--7--7--7-
|-X--7--X--7--X--7--X--7--X--7--X--7--X--7--7--7-
|-X--5--X--5--X--7--X--7--X--5--X--5--X--5--5--5-
|-X-----X-----X--5--X--5--X-----X-----X----------

///////////////////////////////////////////////////////////////////////////

CHORUS (0:42) - Distorted

|Repeat X4
|---------------------------------------------------------------
|---------------------------------------------------------------
|-7-7--7/9-9--9/12-12--12\11-11--11-----------------------------
|-7-7--7/9-9--9/12-12--12\11-11--11-10-10--10\9-9--9\7-7--7\5-5-
|-5-5--5/7-7--7/10-10--10\-9--9---9-10-10--10\9-9--9\7-7--7\5-5-
|------------------------------------8--8---8\7-7--7\5-5--5\3-3-

|Repeat X1
|--------------------------
|--------------------------
|--------------------------
|-5-5--5-5-5--5-5-5--5-5-5-
|-5-5--5-5-5--5-5-5--5-5-5-
|-3-3--3-3-3--3-3-3--3-3-3-
 ' '
///////////////////////////////////////////////////////////////////////////

VERSE 2 (1:05)

|Repeat X1
|---------
|---------
|---------
|-5-------
|-5(hold)-
|-3-------

REPEAT VERSE 1

///////////////////////////////////////////////////////////////////////////

REPEAT CHORUS

///////////////////////////////////////////////////////////////////////////

OUTRO (1:49) - Distorted

|Repeat X1
|---------------------------------------
|---------------------------------------
|-7--------7------------5--------5------
|-7(hold)--7-5--------5-5(hold)--5-7--5-
|-5--------5-5(hold)--5-3--------3-7--5-
|------------3--------3------------5--3-
...friend...mine.......pointed....me

|Repeat X1
|---------------------3--------------
|-----------------------3------------
|-7--------7--------------4---4----7-
|-7(hold)--7-5--------------5------7-
|-5--------5-5(hold)------------5--5-
|------------3-----------------------
.who......become.....not..........be

///////////////////////////////////////////////////////////////////////////