´╗┐ l | less than jake | look what happened tab online player | |


  
#-----------------------------PLEASE NOTE-------------------------------------#
#This OLGA file is the author's own work and represents their interpretation  #
#of the song. You may only use this file for private study, scholarship, or   #
#research. Remember to view this file in Courier, or some other monospaced    #
#font. See http://www.olga.net/faq/ for more information.                     #
#-----------------------------------------------------------------------------#

Date: Mon, 4 Dec 2000 19:37:27 -0500
From: Zerotmw@aol.com
Subject: l/less_than_jake/look_what_happened.tab

Artist: Less Than Jake
Song: Look What Happened (The Last Time)
Album: Borders & Boundaries
Tabbed By: Zerotmw (zerotmw@aol.com)

This is a very easy song so I didn't bother 
to put the exact rhythm of the chords. 
You can figure that out. (all chords are
power chords even though I didn't write
in the octave note)

Intro:
e-----------------------------
B-----------------------------
G-----------------------------
D--2-------2------------------ x4
A-----7--7----7--7------------
E-0-55-44-2-55-44-------------

Pre Verse:
e-----------------------------
B-----------------------------
G-----------------------------
D-99x9------------------------ x3
A-77x7-99999------------------
E------77777------------------

Pre Verse (last time):
e-----------------------------
B-----------------------------
G-----------------------------
D-9-9------------------------- x1
A-7-6-7-9---------------------
E-----5-7---------------------

Verse (palm mute):
e-----------------------------
B-----------------------------
G-----------------------------
D-9---------------------------
A-7-7-7-----------------------
E---5-9-----------------------

Verse (last time)
e-----------------------------
B-----------------------------
G-----------------------------
D-9---------------------------
A-7-9-7-----------------------
E---7-5-----------------------

Chrous:
e-----------------------------
B-----------------------------
G-----------------------------
D-9-4------------------------- 
A-7-2-4-7-9-------------------
E-----2-5-7-------------------

That's about it.  Hope you enjoy this
best song off LTJ's new album.