´╗┐ l | less than jake | gainesville rock city tab online player | |


  
#-----------------------------PLEASE NOTE-------------------------------------#
#This OLGA file is the author's own work and represents their interpretation  #
#of the song. You may only use this file for private study, scholarship, or   #
#research. Remember to view this file in Courier, or some other monospaced    #
#font. See http://www.olga.net/faq/ for more information.                     #
#-----------------------------------------------------------------------------#

Date: Wed, 17 Oct 2001 20:57:03 +0100 (BST)
From: =?iso-8859-1?q?psycho=20byker?= 
Subject: l/less_than_jake/gainesville_rock_city.tab

I declare that this is all my own work (Jamie Curtis)

Band: Less Than Jake 
Song: Gainesville Rock City 
Album: Borders And Boundaries 

Tabbed by: Jamie Curtis 


 


The first part is actually trombone or trumpet or something, 
but this is it on the guitar. It is played over the chords 
E, A, C#, B 

E------------------------------------------ 
B------------------------------------------ 
G------------------------------------------ 
D---6-7-9-7-9-7-6-----6-7-6-------9-9-9-7-6 
A-----------------9-7-------9-7-9---------- 
E------------------------------------------ 

E------------------------------------------ 
B------------------------------------------ 
G------------------------------------------ 
D---6-7-9-7-9-7-6-----6-7-6-------6-4------ 
A-----------------9-7-------9-7-4---------- 
E------------------------------------------ 

Now for the main riff 

E------------------------- ---------------- 
B------------------------- ---------------- 
G------------------------- ---------------- 
D---------------6-7-6-7--- (x 3) -------------7-- 
A---5-7-4-5-2-4----------- ---5-7-4-5---7-- 
E------------------------- -------------5-- 

You play that part 4 times, first 2 times just guitar 
then the trumpets come in. 

After that the chords are: 

E and A for the verse (this map, hung up on the door etc) 
F#, B, E, C# for the chorus (Im half awake half a world away etc) 

The order for the song is: 

Trumpet bit 
Main Riff 
Verse 
Chorus 
Main Riff 
Verse 
Chorus (into a F#, B, E loop) 
Trumpet bit 
Main RiffBand: Less Than Jake
Song: Gainesville Rock City
Album: Borders And Boundaries

Tabbed by: Jamie Curtis