´╗┐ l | less than jake | als war crd online player | |


  
#-----------------------------PLEASE NOTE-------------------------------------#
#This OLGA file is the author's own work and represents their interpretation  #
#of the song. You may only use this file for private study, scholarship, or   #
#research. Remember to view this file in Courier, or some other monospaced    #
#font. See http://www.olga.net/faq/ for more information.                     #
#-----------------------------------------------------------------------------#

Date: Mon, 29 Jul 2002 11:43:23 -0700 (PDT)
From: Jason Duger 
Subject: l/less_than_jake/als_war.crd

TITLE: AL'S WAR
ARTIST: LESS THAN JAKE
ALBUM: HELLO ROCKVIEW
TABBED BY: JASON DUGER

------------------------------------------------
------------------------------------------------
--------11-11-10-------------6------------------
-4-4-4---X--X--X--8-8-9--4-4-4------------------
-4-4-4---9--9--9--8-8-9--4-4-4------------------
-2-2-2------------6-6-7--2-2--------------------
INTRO
----|--------|----------------------------------
----|---X6---|----------------------------------
----|--------|----------------------------------
-4-4|-444444-|8-8-9-----------------------------
-4-4|-444444-|8-6-9-----------------------------
-2-2|-222222-|6-6-7-----------------------------
VERSE PICKUP
------------------------------------------------
------------------------------------------------
--------11-11-10-------------6------------------
-4-4-4---X--X--X--8-8-9--4-4-4------------------
-4-4-4---9--9--9--8-8-9--4-4-4------------------
-2-2-2------------6-6-7--2-2--------------------
VERSE
------------------------------------------------
------------------------------------------------
-6-6--4-4---------------------------------------
-6-6--4-4---11-11--11-11-10---------------------
-4-4--2-2---11-11--11-11--X---------------------
-------------9--9---9--9--9---------------------
Chorus
------------------------------------------------
------------------------------------------------
------------------------------------------------
-8-8-9------------------------------------------
-8-8-9------------------------------------------
-6-6-7------------------------------------------
TO VERSE PICKUP
------------------------------------------------
------------------------------------------------
------------11-11-10----------------------------
-4-4-444444-11-11--X----------------------------
-4-4-444444--9--9--9----------------------------
-2-2-222222-------------------------------------
BRIDGE
------------------------------------------------
------------------------------------------------
------------------------------------------------
11-10-11----------------------------------------
11--X-11----------------------------------------
-9--9--9----------------------------------------
END




		     STRUCTURE:

		INTRO 		X2
		VERSE PICKUP	X1
		VERSE 		X4
		CHORUS		X4
		TO VERSE PICKUP X1
		VERSE PICKUP	X1
		VERSE 		X4
		CHORUS		X4
		TO VERSE PICKUP X1
		BRIDGE		X4
		VERSE		X2
		CHORUS		X9
		TO VERSE PICKUP X1
		END		X1