l | lagwagon | drive by crd online player | |


  
#-----------------------------PLEASE NOTE-------------------------------------#
#This OLGA file is the author's own work and represents their interpretation  #
#of the song. You may only use this file for private study, scholarship, or   #
#research. Remember to view this file in Courier, or some other monospaced    #
#font. See http://www.olga.net/faq/ for more information.                     #
#-----------------------------------------------------------------------------#

Date: Tue, 13 May 2003 01:13:50 -0500
From: Pablo  Lastra 
Subject: l/lagwagon/drive_by.crd

Lagwagon - Drive by
Album: Let's Talk About Leftovers
By: Pablo Lastra (plastra@mail.smu.edu)

Intro
guitar 1
e|---------------------------------------------------------------------------|
B|---------------------------------------------------------------------------|
G|-9-9-4-4-6-6-6-4-4-2~------9-9-4-4-6-6-6-2-2-4~-------9-9-4-4-6-6-6-4-4----|
D|-9-9-4-4-6-6-6-4-4-2~------9-9-4-4-6-6-6-2-2-4~-------9-9-4-4-6-6-6-4-4----|
A|-7-7-2-2-4-4-4-2-2-0~------7-7-2-2-4-4-4-0-0-2~-------7-7-2-2-4-4-4-2-2----|
E|---------------------------------------------------------------------------|

guitar 2
e|---------------------------------------------------------------------------|
B|---------------------------------------------------------------------------|
G|-9-9-11-13-9-9-9-11-13-----9-9-11-13-9-9-9-8-9-11~--9-9-11-13-9-9-9-11-13--|
D|-x-x--x--x-x-x-x--x--x--7--x-x--x--x-x-x-x-x-x--x---x-x--x--x-x-x-x--x--x--|
A|-7-7--9-11-7-7-7--9-11--7--7-7--9-11-7-7-7-6-7--9~--7-7--9-11-7-7-7--9-11--|
E|------------------------5--------------------------------------------------|

Chord chart for the rest of the song
e|---------------------------------------------------------------------------|
B|---------------------------------------------------------------------------|
G|---------2-----4-----6-----7-----9-----12----------------------------------|
D|---2-----2-----4-----6-----7-----9-----12----------------------------------|
A|---2-----0-----2-----4-----5-----7-----10----------------------------------|
E|---0-----------------------------------------------------------------------|
 E A B C# D e g

Verse 1 (I met her in transit...)
e B
D C#
g e
e B
e B
D C#
A e
A B

Chorus 1 (And pain is here now...)
e A B
e A B
C# A B

Verse 2 (But you died...)
e B
D C
g e
e B
e B
D C#
A e
A B

Chorus 2 (Emptied by oceans...)
e A B
e A B
C# A B
D e (...to drive by)

Repeat intro, ring D at the end

Bridge (I want to see you...)
B C
A B

Chorus 3 (And pain is here now...)
e A B
e A B
e A B (I've been expecting you)
C# A B (I've been expecting)

Verse 4 (I met her in transit, on her way home...)
palm muted
e B
D C#
A e
A B

Outro
D, then end in E

This is all my work.
So don't rip me off. And check out my Bad Astronaut tabs too!
You can contact me at plastra@mail.smu.edu