´╗┐ l | lagwagon | after you my friend crd online player | |


  
#-----------------------------PLEASE NOTE-------------------------------------#
#This OLGA file is the author's own work and represents their interpretation  #
#of the song. You may only use this file for private study, scholarship, or   #
#research. Remember to view this file in Courier, or some other monospaced    #
#font. See http://www.olga.net/faq/ for more information.                     #
#-----------------------------------------------------------------------------#

From: "Bill Lupton" 
Subject: l/lagwagon/after_you_my_friend.crd
Date: Thu, 04 Jul 2002 06:12:14 +0000

Title:After You My Friend
Artist:Lagwagon
Album: Let's Talk About Feelings
Transcribed by: Bill Lupton
Tuning-Standard

READ NOTES AT BOTTOM OF DOCUMENT TO UNDERSTAND HOW I TABBED THIS!!!

Intro-Gtr.1
--------|---------|---------|-------------------------------------------------
--------|---------|---------|-------------------------------------------------
--------|---------|---------|-------------------------------------------------
-9-9-9-9|x-9-9-9-9|x-9-9-9-9|x-9-9-9-9----------------------------------------
-9-9-9-9|x-9-9-9-9|x-9-9-9-9|x-9-9-9-9----------------------------------------
-7-7-7-7|x-7-7-7-7|x-7-7-7-7|x-7-7-7-7----------------------------------------

Intro-Gtr.2
--------|---------|---------|-------------------------------------------------
--------|---------|---------|-------------------------------------------------
--------|---------|/-8-8-8-8|--8-8-8-8----------------------------------------
--------|---------|/-x-x-x-x|--x-x-x-x----------------------------------------
--------|---------|/-6-6-6-6|--6-6-6-6----------------------------------------
--------|---------|---------|-------------------------------------------------

Verse-Riff1-Gtr.1
---------|---------|---------|---------|---------|---------|---------|--------
---------|---------|---------|---------|---------|---------|---------|--------
---------|---------|---------|---------|---------|-4-4-4-4-|-6-6-6-6-|--------
-9-9-9-9-|-4-4-4-4-|-6-6-6-6-|-4-4-4-4-|-2-2-2-2-|-4-4-4-4-|-6-6-6-6-|-4------
-9-9-9-9-|-4-4-4-4-|-6-6-6-6-|-4-4-4-4-|-2-2-2-2-|-2-2-2-2-|-4-4-4-4-|-4------
-7-7-7-7-|-2-2-2-2-|-4-4-4-4-|-2-2-2-2-|-0-0-0-0-|---------|---------|-2------

Verse-Riff1-Gtr.2-These Chords are played palm muted very quietly and each 
of these chords are played 8 times very fast. Listen to the record you'll 
see what I mean
---------|---------|---------|---------|---------|---------|---------|--------
---------|---------|---------|---------|---------|---------|---------|--------
---------|---------|---------|---------|---------|-4-------|-6-------|--------
-9-------|-4-------|-6-------|-4-------|-2-------|-4-------|-6-------|-4------
-9-------|-4-------|-6-------|-4-------|-2-------|-2-------|-4-------|-4------
-7-------|-2-------|-4-------|-2-------|-0-------|---------|---------|-2------

Verse-Riff1a-Gtrs.1 and 2-These chords are not palm muted and each of them 
is played 8 times. Again, refer to the record.
---------|---------|---------|---------|---------|---------|---------|--------
---------|---------|---------|---------|---------|---------|---------|--------
---------|---------|---------|---------|---------|-4-------|-6-------|--------
-9-------|-4-------|-6-------|-4-------|-2-------|-4-------|-6-------|-4------
-9-------|-4-------|-6-------|-4-------|-2-------|-2-------|-4-------|-4------
-7-------|-2-------|-4-------|-2-------|-0-------|---------|---------|-2------
Verse-Riff2-Gtrs.1 and 2
----------|----------|----------|----------|----------|----------|----------|-
----------|----------|----------|----------|----------|----------|----------|-
----------|----------|----------|----------|-9-9-9-9-9|-4-4-4-4-4|-6-6-6-6-6|-
-9-9-9-9-9|-9-9-9-9-9|-6-6-6-6-6|-4-4-4-4-4|-9-9-9-9-9|-4-4-4-4-4|-6-6-6-6-6|-
-9-9-9-9-9|-9-9-9-9-9|-6-6-6-6-6|-4-4-4-4-4|-7-7-7-7-7|-2-2-2-2-2|-4-4-4-4-4|-
-7-7-7-7-7|-6-6-6-6-6|-4-4-4-4-4|-2-2-2-2-2|----------|----------|----------|-




Verse-Riff2-Gtrs.1 and 2 cont...
----------|-----------|-----------|----------|----------|---------------------
----------|-----------|-----------|----------|----------|---------------------
----------|-----------|-----------|----------|----------|---------------------
-4-4-4-4-4|-2-2--4-4-4|-6-6--7-7-7|-9-9-9-9-9|-4-4-4-4-4|-6-6-6-6-6-6-8-8-8-8-
-4-4-4-4-4|-2-2--4-4-4|-6-6--7-7-7|-9-9-9-9-9|-4-4-4-4-4|-6-6-6-6-6-6-6-6-6-6-
-2-2-2-2-2|-0-0--2-2-2|-4-4--5-5-5|-7-7-7-7-7|-2-2-2-2-2|-4-4-4-4-4-4-6-6-6-6-

Verse-Riff2-Gtrs.1 and 2-cont...
----|---------|-------------|------------|-------------|----------------------
----|---------|-------------|------------|-------------|----------------------
----|---------|-------------|------------|-------------|----------------------
-8-8|-6-6--2-2|-8-8--7-7-7-7|-9-9-9-9-9-9|-4-4-4-4-4-4-|----------------------
-6-6|-6-6--2-2|-6-6--7-7-7-7|-9-9-9-9-9-9|-4-4-4-4-4-4-|----------------------
-6-6|-4-4--0-0|-6-6--5-5-5-5|-7-7-7-7-7-7|-2-2-2-2-2-2-|----------------------

Verse-Riff1a-Gtrs.1 and 2-These chords are not palm muted and each of them 
is played 8 times. Again, refer to the record.
---------|---------|---------|---------|---------|---------|---------|--------
---------|---------|---------|---------|---------|---------|---------|--------
---------|---------|---------|---------|---------|-4-------|-6-------|--------
-9-------|-4-------|-6-------|-4-------|-2-------|-4-------|-6-------|-4------
-9-------|-4-------|-6-------|-4-------|-2-------|-2-------|-4-------|-4------
-7-------|-2-------|-4-------|-2-------|-0-------|---------|---------|-2------

Verse-Riff2-Gtrs.1 and 2
----------|----------|----------|----------|----------|----------|----------|-
----------|----------|----------|----------|----------|----------|----------|-
----------|----------|----------|----------|-9-9-9-9-9|-4-4-4-4-4|-6-6-6-6-6|-
-9-9-9-9-9|-9-9-9-9-9|-6-6-6-6-6|-4-4-4-4-4|-9-9-9-9-9|-4-4-4-4-4|-6-6-6-6-6|-
-9-9-9-9-9|-9-9-9-9-9|-6-6-6-6-6|-4-4-4-4-4|-7-7-7-7-7|-2-2-2-2-2|-4-4-4-4-4|-
-7-7-7-7-7|-6-6-6-6-6|-4-4-4-4-4|-2-2-2-2-2|----------|----------|----------|-
Verse-Riff2(variation before interlude)-Gtrs.1 and 2
---|
---| Hold Chord
---| for 4 beats
-4-|
-4-|
-2-|

Interlude-Rhyfig.1-gtr.2  (play 3 times)        Then end on this.
|---4---4---2---2-2-2---2---2---2---2-2-2|      |---4---4---2---2-2-2-|
|---5---5---2---2-2-2---4---4---4---4-4-4|      |---5---5---2---2-2-2-|
|---4---4---3---3-3-3---3---3---2---2-2-2|      |---4---4---3---3-3-3-|
|---6---6---2---2-2-2---4---4---4---4-4-4|      |---6---6---2---2-2-2-|
|-4-4-4-4---4---4-4-4-2-2-2-2-3-3-3-3-3-3|      |-4-4-4-4---4---4-4-4-|
|---------2-2-2-2-2-2--------------------|      |---------2-2-2-2-2-2-|







Interlude-Gtr.1 (This riff is played overtop of Interlude-Rhyfig.1)-Refer to 
Record
----------------------------------|------------------------------------------|
-5-4----------4-5--4-5-4---------4|-9-7-5--5-5-5--7-9---7-9-7--4-4-4-5-7-9-7-|
-----6--6-6-6------------5-5-5-6--|-9-8-6--6-6-6--8-9---8-9-8--5-5-5-6-8-9-8-|
----------------------------------|------------------------------------------|
----------------------------------|------------------------------------------|
----------------------------------|------------------------------------------|

Interlude Cont.
------------|
-5-5-5-5-7-9|
-6-6-6-6-8-9|
------------|
------------|
------------|

Intro-Variation-Gtr.1
--------|---------|
--------|---------|
--------|---------|
-9-9-9-9|x-9-9-9-9|
-9-9-9-9|x-9-9-9-9|
-7-7-7-7|x-7-7-7-7|

Intro-Variation-Gtr.2
--------|---------|
--------|---------|
--------|/-8-8-8-8|
--------|/-x-x-x-x|
--------|/-6-6-6-6|
--------|---------|

Verse-Riff1(Variation)-Gtr.1      p.m.|-----------------------------------
---------|---------|---------|--------|-----------------|----------------|----
---------|---------|---------|--------|-----------------|----------------|----
---------|---------|---------|--------|-----------------|-4-4-4-4-4-4-4-4|----
-9-9-9-9-|-4-4-4-4-|-6-6-6-6-|-4-4-4-4|-2-2-2-2-2-2-2-2-|-4-4-4-4-4-4-4-4|----
-9-9-9-9-|-4-4-4-4-|-6-6-6-6-|-4-4-4-4|-2-2-2-2-2-2-2-2-|-2-2-2-2-2-2-2-2|----
-7-7-7-7-|-2-2-2-2-|-4-4-4-4-|-2-2-2-2|-0-0-0-0-0-0-0-0-|----------------|----

          end p.m.
-----------------|
-----------------|--------------|---------------------------------------------
-----------------|--------------|---------------------------------------------
-6-6-6-6-6-6-6-6-|--------------|---------------------------------------------
-6-6-6-6-6-6-6-6-|-4-4-4-4-4-4-4|---------------------------------------------
-4-4-4-4-4-4-4-4-|-4-4-4-4-4-4-4|---------------------------------------------
-----------------|-2-2-2-2-2-2-2|---------------------------------------------










Verse-Riff1-Gtr.2-These Chords are played palm muted very quietly and each 
of these chords are played 8 times very fast. Listen to the record you'll 
see what I mean
---------|---------|---------|---------|---------|---------|---------|--------
---------|---------|---------|---------|---------|---------|---------|--------
---------|---------|---------|---------|---------|-4-------|-6-------|--------
-9-------|-4-------|-6-------|-4-------|-2-------|-4-------|-6-------|-4------
-9-------|-4-------|-6-------|-4-------|-2-------|-2-------|-4-------|-4------
-7-------|-2-------|-4-------|-2-------|-0-------|---------|---------|-2------

Verse-Riff2-Gtrs.1 and 2
----------|----------|----------|----------|----------|----------|----------|-
----------|----------|----------|----------|----------|----------|----------|-
----------|----------|----------|----------|-9-9-9-9-9|-4-4-4-4-4|-6-6-6-6-6|-
-9-9-9-9-9|-9-9-9-9-9|-6-6-6-6-6|-4-4-4-4-4|-9-9-9-9-9|-4-4-4-4-4|-6-6-6-6-6|-
-9-9-9-9-9|-9-9-9-9-9|-6-6-6-6-6|-4-4-4-4-4|-7-7-7-7-7|-2-2-2-2-2|-4-4-4-4-4|-
-7-7-7-7-7|-6-6-6-6-6|-4-4-4-4-4|-2-2-2-2-2|----------|----------|----------|-

Verse-Riff2-Gtrs.1 and 2 cont...
----------|-----------|-----------|----------|----------|---------------------
----------|-----------|-----------|----------|----------|---------------------
----------|-----------|-----------|----------|----------|---------------------
-4-4-4-4-4|-2-2--4-4-4|-6-6--7-7-7|-9-9-9-9-9|-4-4-4-4-4|-6-6-6-6-6-6-8-8-8-8-
-4-4-4-4-4|-2-2--4-4-4|-6-6--7-7-7|-9-9-9-9-9|-4-4-4-4-4|-6-6-6-6-6-6-6-6-6-6-
-2-2-2-2-2|-0-0--2-2-2|-4-4--5-5-5|-7-7-7-7-7|-2-2-2-2-2|-4-4-4-4-4-4-6-6-6-6-

Verse-Riff2-Gtrs.1 and 2-cont...
----|---------|-------------|------------|---
----|---------|-------------|------------|---
----|---------|-------------|------------|---
-8-8|-6-6--2-2|-8-8--7-7-7-7|-9-9-9-9-9-9|-7- hold
-6-6|-6-6--2-2|-6-6--7-7-7-7|-9-9-9-9-9-9|-7- chord
-6-6|-4-4--0-0|-6-6--5-5-5-5|-7-7-7-7-7-7|-5-

Outro-Gtr.1 and 2
Repeat 3x
------------------------------|
------------------------------|
--------------------------9-9-|
-9--9-9--7-7--7-7--6-6--2-9-9-|
-9--9-9--7-7--7-7--6-6--2-7-7-|
-7--7-7--5-5--4-4--4-4--0-----|

------------------------------|---|
------------------------------|---|
------------------------------|---| Hold
-9--9-9--7-7--7-7--6-6-4-4-4-4|-2-| Chord
-9--9-9--7-7--7-7--6-6-4-4-4-4|-2-|
-7--7-7--5-5--4-4--4-4-2-2-2-2|-0-|

--END--





Notes:
-You HAVE to have a recording of the song to understand this tab.

-All Guitars are distorted except the interlude, which is clean.

-There are two guitars in this song, the parts correspond with each other.
Ex. Verse-riff1-gtr.1 is played while Gtr.2 plays Verse-riff1-Gtr.2

Most of you should have already picked up on this if you have an 
understanding for the arrangement of music.

For you beginners,

Good Luck!