´╗┐ j | john lennon | woman crd online player | |


  
#----------------------------------PLEASE NOTE---------------------------------#
#This file is the author's own work and represents their interpretation of the #
#song. You may only use this file for private study, scholarship, or research. #
#------------------------------------------------------------------------------##
From: yira@news.dorsai.org (victor perez)
Date: Fri, 7 Jul 1995 21:33:40 GMT


                         Woman
                          By
                       John Lennon

   by: Victor C. Perez
       Yira@dorsai.dorsai.org

   intro: 4/4    |:Ebsus4   Eb| Ab/Eb  Eb :|

    Eb    Fm7        Eb/G           Fm7
   Woman,     I can hardly express
   Eb         Cm             Fm        Bbsus4  Bb
   my mixed emotions at my thoughtlessness.
    Ab   Fm7         Gm            Bbsus4   B
   After all, I'm forever in your debt.
        Eb   Fm7        Eb/G      Fm7
   And woman,    I will try to express
   Eb        Cm           Fm      Bbsus4  B
   my inner feelings and thankfulness
   Ab          Fm7      Gm           Bbsus4   B
   for showing me the meaning of success______.


   Chorus:

   Ebmaj9    Cm7           Fm7                 Bb6
   Ooh,_____________ well,well    Doo doo doo  doo doo.

    Eb    Fm7             Eb/G   Fm7
   Woman,      I know you understand
    Eb          Cm        Fm           Bbsus4   B
   the little children inside the man.
     Ab      Fm7        Gm              Bbsus4  B
   Please remember, my life is in your hands.
         Eb   Fm7         Eb/G           Fm7
   And woman,     hold me close to your heart.
    Eb       Cm            Fm            Bbsus4  B
   However distant, don't keep us apart.
   Ab    Fm7          Gm             Bbsus4  B
   After all, it is written in the stars_____.


   {goto  Chorus}

   *Key change to E

      E    F#m7        E/G#        F#m7
    Woman,      please let me explain.
    E        C#m                F#m        Bsus4  B
    I never meant to cause you sorrow and pain.
    A          F#m7     G#m                 Bsus4           B
    So let me tell you again and again and again_____________.


     {same as above but lyrics change}

       Emaj9    C#m7            F#m7             B6
     I love___________you, yeah,yeah, now and forever.



     And now I think it's time to show the chords of this song for
     those of you who do not know them,never heard of them and so on.
     I know that it's a pain to write them all down but I thoght for
     a second just how I felt, when I started playing guitar, when I
     was playing a song and suddenly there it was , the weirdest name 
     for a chord I've ever seen and didn't know how to play it.I had 
     to go the music store to buy a book on chords and eventually I 
     learned the damm thing. Anyway this is for all those who are 
     begging to play the guitar but this chord names confuse you a lot.

     Chords in this song:  

     chords names:             frets:          Fingerings:
     
     Ebsus4                    x68896           x13341
     Eb                        x68886           x13331
     Ab/E                      x66544           x34211
     Fm7                       131111           131111
     Eb/G                      3x134x           2x134x
     Cm                        x57765           x13421
     Bbsus4                    x13341           x13341
     Bb                        x13331           x13331
     Ab                        466544           134211
     Gm                        355333           134111
     Ebmaj9                    xx1331           xx1341
     Bb6                       x13333           x13334   or x13333
     Cm7                       x57565           x13121
     E                         022100           023100
     F#m7                      242222           231111
     E/G#                      4x2400           2x1400
     C#m                       x68876           x13421
     F#m                       244222           234111
     Bsus4                     x24452           x23341
     B                         x24442           x23331
     A                         x02220           x01230  or  x01110
     B6                        x24444           x23334  or  x23333


===================================
===================================

JOHN LENNON - WOMAN


WOMAN
by John Lennon 

// Standard tuning, use capo on first freet
// All notes are relative to the capo, 
// I mean D with capo is really Eb


    Dsus  D   G   D   x2
         (For the other half of the sky) 

 D   Em      D/F#       Em
Woman I can hardly express
D         Bm             Em            Asus - A
My mixed emotions at my thoughtlessness
G     Em        F#m              Asus - A
After all I'm forever in your debt
     D   Em      D/F#        Em
And woman I will try to express
D         Bm         Em            Asus - A 
My inner feelings and thankfulness
G     Em        F#m              Asus - A
For showing me the meaning of success 

Dmaj7/9  Bm      Em      
Oooooooooooh,well, well
A6
Doo, doo, doo, doo, doo   x2

Woman I know you understand
The little child inside of the man
Please remember my life is in your hands
And woman hold me close to your heart
However distant don't keep us apart
After all it is written in the stars 

Ooh, well, well
Doo, doo, doo, doo, doo
Ooh, well, well
Doo, doo, doo, doo, doo
Well 

// Tone goes up half step
// What I do is to move my capo to the second 
// freet and go on playing the same, but you 
// can play this without moving your capo:

 Eb  Fm       Eb/F      Fm
Woman please let me explain
Eb        Cm              Fm            Bbsus - Bb
I never meant to cause you sorrow or pain
G#        Fm         Gm               Bbsus - Bb
So let me tell you again and again and again 

Ebmaj7/9  Cm      Fm      
I love you, yeah, yeah
Bb6
Now and forever

// Chord definitions

    Cm      D      Dsus  Dmaj7/9   D/F#    Eb    Ebmaj7/9
|---3---|---2---|---3---|---0---|---x---|---5---|---1---|
|---4---|---3---|---3---|---2---|---3---|---7---|---3---|
|---5---|---2---|---2---|---2---|---2---|---7---|---3---|
|---5---|---0---|---0---|---0---|---0---|---7---|---1---|
|---3---|---x---|---x---|---x---|---x---|---5---|---x---|
|---x---|---x---|---x---|---x---|---2---|---x---|---x---|

  Eb/F      Em      Fm     F#m      G       Gm     G#m
|---3---|---0---|---1---|---2---|---3---|---3---|---4---|
|---4---|---0---|---1---|---2---|---3---|---3---|---4---|
|---3---|---0---|---1---|---2---|---4---|---3---|---5---|
|---5---|---2---|---3---|---4---|---5---|---5---|---6---|
|---6---|---2---|---3---|---4---|---5---|---5---|---6---|
|---x---|---0---|---1---|---2---|---3---|---3---|---4---|

    A      Asus     A6      Bb    Bbsus    Bb6
|--(0)--|--(0)--|---2---|--(1)--|--(1)--|---3---|
|---2---|---3---|---2---|---3---|---4---|---3---|
|---2---|---2---|---2---|---3---|---3---|---3---|
|---2---|---2---|---2---|---3---|---3---|---3---|
|---0---|---0---|---0---|---1---|---1---|---1---|
|---x---|---x---|---x---|---x---|---x---|---x---|

// Thats all folks, I ain't got my guitar here 
// with me but I think it sounds good like this

=======================



Submitted By: joel

Tabbed By: joel garrigan
Email: garrigan@lineone.net

Tuning: Standard (E A D G B E)



WOMAN JOHN LENNON CAPO 1ST FRET (all chords are tabbed counting
from the capo)

chords used:                  lyrics(with chords):

Dsus4                   INTRO:|Dsus  D |Dsus2  D|Dsus4  D|Dsus2  D||
                        VERSE 1:
E|----|--------|--4---||   D     Em7    F#m          Em7
B|----|--------|--3---||   Woman  I can hardly express
G|----|--1-----|------||   D           Bm           Em           Asus4 A
D|----|--------|------||     My mixed emotions at my thoughtlessness
A|----|--------|------||   G         Em7      F#m           Asus4  A
E|----|--------|------||    after all I'm forever in your debt
                             D       Em7     F#m       Em7
                          and woman, I will try to express
D                         D          Bm           Em          Asus4 A
                            my inner feelings and thankfullness
E|----|--2----|-------||  G            Em7     F#m          G/A   A
B|----|-------|---3---||   for showing me the meaning of sucsess.
G|----|--1----|-------||CHORUS 1:
D|----|-------|-------||  Dmaj9  Bm7        Em7
A|----|-------|-------||   ooh,       well,well,
E|----|-------|-------||                A6
                           doo doo doo, doo doo
Dsus2                     Dmaj9  Bm7        Em7
                          ooh         well,well
E|----|-------|-------||                A6
B|----|-------|---3---||   doo doo doo, doo doo
G|----|---1---|-------||VERSE 2:
D|----|-------|-------||  D      Em7        F#m     Em7
A|----|-------|-------||  woman, i know you understand
E|----|-------|-------|| D            Bm      Em         Asus4  A
                          the little child inside the man
Em7                      G           Em7      F#m             Asus4 A
                          please remember my life is in your hands
                              D    Em7      F#m             Em7
E|----|-------|-------|| and woman hold me close to your heart
B|----|-------|---3---||  D        Bm            Em        Asus4 A
G|----|-------|-------||  however distant don't keep us apart
D|----|---2---|-------|| G       Em7       F#m            G/A   A
A|----|---1---|-------||  after all it is written in the stars
E|----|-------|-------||CHORUS 2:
                                  Dmaj9  Bm7        Em7
F#m                                 ooh,       well,well,
                                                 A6
                                    doo doo doo, doo doo
E|----|--1----|-------|-----|     Dmaj9  Bm7        Em7
B|----|--1----|-------|-----|       ooh,       well,well,
G|----|--1----|-------|-----|                    A6
D|----|--1----|-------|--4--|       doo doo doo, doo doo
A|----|--1----|-------|--3--|
E|----|--1----|-------|-----|VERSE 3:(note: key moved up half a step)
                            Eb    Fm7     Gm          Fm7
Bm                          woman please let me explain
                            Eb    Cm                      Fm        Bbsus4 Bb
                              i never meant to cause you sorrow or pain
E|---|--1---|-------|-------| Ab          Fm7      Gm                  Ab/Bb
B|---|--1---|---2---|-------|  so let me tell you again and again and again
G|---|--1---|-------|--4----|
D|---|--1---|-------|--3----|CHORUS 3: REPEAT TO FADE
A|---|--1---|-------|-------|    Ebmaj9 Cm7        Fm7           Bb6
E|---|--1---|-------|-------|    I love  you yeah yeah now and forever,
                                 Ebmaj9 Cm7        Fm7           Bb6
Em                               i love  you yeah yeah now and forever

E|----|-----||
B|----|-----||
G|----|-----||
D|----|-2---||
A|----|-1---||
E|----|-----||

Asus4

E|---|-----|----||
B|---|-----|-3--||
G|---|--2--|----||
D|---|--1--|----||
A|---|-----|----||
E|---|-----|----||

A

E|---|----|-----||
B|---|-3--|-----||
G|---|-2--|-----||
D|---|-1--|-----||
A|---|----|-----||
E|---|----|-----||

G


E|-----|----|-3-||
B|-----|----|---||
G|-----|----|---||
D|-----|----|---||
A|-----|-1--|---||
E|-----|----|-2-||

G/A
   FR3
E|-x--|------|------||
B|-1--|------|------||
G|----|---2--|------||
D|----|------|---4--||
A|----|------|---x--||
E|----|------|---3--||

Dmaj9
  fr4
E|-x--|------|------||
B|----|--3---|------||
G|----|------|--4---||
D|-1--|------|------||
A|----|--2---|------||
E|-x--|------|------||

Bm7

E|---|--1---|-------|-------|
B|---|--1---|---2---|-------|
G|---|--1---|-------|-------|
D|---|--1---|-------|---3---|
A|---|--1---|-------|-------|
E|---|--1---|-------|-------|

A6

E|---|-1--|-----||
B|---|-1--|-----||
G|---|-1--|-----||
D|---|-1--|-----||
A|---|----|-----||
E|---|----|-----||

Eb

E|----|-------|--3-|---||
B|----|-------|----|-4-||
G|----|-------|--2-|---||
D|-1--|-------|----|---||
A|----|-------|----|---||
E|----|-------|----|---||
OR
  FR3
E|-1--|----|---|-----||
B|----|-2--|---|-----||
G|-1--|----|---|-----||
D|----|----|-3-|-----||
A|----|----|---|--4--||
E|----|----|---|--X--||

Fm7
E|----|--1----|-------|-----|
B|----|--1----|-------|-----|
G|----|--1----|-------|-----|
D|----|--1----|-------|-----|
A|----|--1----|-------|--3--|
E|----|--1----|-------|-----|

Gm
   fr3
E|--1----|-------|-----|
B|--1----|-------|-----|
G|--1----|-------|-----|
D|--1----|-------|--4--|
A|--1----|-------|--3--|
E|--1----|-------|-----|

Cm
   fr3
E|--1---|-------|-------|
B|--1---|---2---|-------|
G|--1---|-------|--4----|
D|--1---|-------|--3----|
A|--1---|-------|-------|
E|--1---|-------|-------|

Fm

E|--1----|-------|-----|
B|--1----|-------|-----|
G|--1----|-------|-----|
D|--1----|-------|--4--|
A|--1----|-------|--3--|
E|--1----|-------|-----|

Bbsus4

E|--1---|-------|-------|---|
B|--1---|-------|-------|-4-|
G|--1---|-------|--3----|---|
D|--1---|-------|--2----|---|
A|--1---|-------|-------|---|
E|--1---|-------|-------|---|

Bb

E|--1---|-------|-------|---|
B|--1---|-------|--4----|---|
G|--1---|-------|--3----|---|
D|--1---|-------|--2----|---|
A|--1---|-------|-------|---|
E|--1---|-------|-------|---|

Ab
   fr4
E|--1----|-------|-----|
B|--1----|-------|-----|
G|--1----|---2---|-----|
D|--1----|-------|--4--|
A|--1----|-------|--3--|
E|--1----|-------|-----|

Ab/Bb
   FR4
E|-x--|------|------||
B|-1--|------|------||
G|----|---2--|------||
D|----|------|---4--||
A|----|------|---x--||
E|----|------|---3--||

Ebmaj9
  fr5
E|-x--|------|------||
B|----|--3---|------||
G|----|------|--4---||
D|-1--|------|------||
A|----|--2---|------||
E|-x--|------|------||

Cm7
  fr3
E|--1---|-------|-------|
B|--1---|---2---|-------|
G|--1---|-------|-------|
D|--1---|-------|---3---|
A|--1---|-------|-------|
E|--1---|-------|-------|

Bb6

E|---|--|-3--|-----||
B|---|--|-3--|-----||
G|---|--|-3--|-----||
D|---|--|-3--|-----||
A|-1-|--|----|-----||
E|-x-|--|----|-----||



=======================


#----------------------------------PLEASE NOTE----------------------------------#
# This file is the author's own work and represents their interpretation of the #
# song. You may only use this file for private study, scholarship, or research. #
#-------------------------------------------------------------------------------#



                               JOHN LENNON - WOMAN

                             (Album: Double Fantasy)




Tabbed by: Swayne (3.8.2007) - swayne@pobox.sk
Released: January 16, 1981
Recorded: August 5, August 27, September 8, September 22, 1980
Length: 3:32
Label: Geffen Records
Producer(s): John Lennon, Yoko Ono & Jack Douglas



"Woman" is John's ode to his wife Yoko Ono, which is introduced by Lennon whispering,
"For the other half of the sky..." - an expression coined by Mao. "Woman" was the
second single released from the Double Fantasy album, and the first Lennon single
issued after his death on December 8, 1980. The B-side of the single is Ono's song
"Beautiful Boys".




CHORDS:

D        x00232
Dsus4    x00233
Dadd9    x00230
Em       022000
F#m      244222
Bm       224432
A        002220
Asus4    002230
Eb       xx5343 (66504x)
Fm       122111
Gm       355333
Cm       335543
Ab       466544
Bb       688766 (113331)
Bbsus4   688866 (113341)


--> Standard tuning  |e|B|D|G|A|E|
--> Capo on 1st

INTRO:
		Dsus4, D, Dadd9, D (Repeat 2x)


VERSE 1:
		D    Em      F#m	    Em
		Woman, I can hardly express
		D         Bm          Em	       Asus4, A
		My mixed emotion at my thoughtlessness
		G      Em	F#m		   Asus4, A
		After all I'm forever in your debt


VERSE 2:
		    D    Em       F#m	      Em
		And woman, I will try express
		D	 Bm	     Em		    Asus4, A
		My inner feelings and thankfullness
		G	    Em	   F#m		Asus4, A
		For showing me the meaning of succe___ ss


CHORUS:
		D	      Bm	   Em		       A
		Ooh_________________ well, well... Doo doo doo doo-doo
		D	      Bm	   Em		       A
		Ooh_________________ well, well... Doo doo doo doo-doo


VERSE 3:
		D    Em           F#m	      Em
		Woman, I know you understand
		D	   Bm	   Em		Asus4, A
		The little child inside the man
		G	 Em	    F#m		    Asus4, A
		Please remember, my life is in your hands


VERSE 4:
		    D    Em        F#m	      	       Em
		And woman, hold me close to your heart
		D	Bm	       Em	     A
		However distant, don't keep us apart
		G      Em	 F#m		Asus4, A
		After all, it is written in the sta___ rs


CHORUS:
		D	      Bm	   Em		       A
		Ooh_________________ well, well... Doo doo doo doo-doo
		D	      Bm	   Em		       A
		Ooh_________________ well, well... Doo doo doo doo-doo


VERSE 5:
		Eb   Fm       Gm       Fm
		Woman, please let me explain
		Eb      Cm		   Fm		Bb
		I never meant to cause you sorrow or pain
		Ab	  Fm	    Gm			 Bbsus4, Bb
		So let me tell you again and again and aga______ in


CHORUS:
		  Eb   Cm	  Fm		     Bb
		I love you! Yeah, yeah... now and forever
		  Eb   Cm	  Fm		     Bb
		I love you! Yeah, yeah... now and forever
		  Eb   Cm	  Fm		     Bb
		I love you! Yeah, yeah... now and forever
		  Eb   Cm	  Fm		     Bb
		I love you! Yeah, yeah... now and forever


		(REPEAT AND FADE)