´╗┐ j | jet | rollover dj crd online player | |


  
#-----------------------------PLEASE NOTE-------------------------------------#
#This OLGA file is the author's own work and represents their interpretation  #
#of the song. You may only use this file for private study, scholarship, or   #
#research. Remember to view this file in Courier, or some other monospaced    #
#font. See http://www.olga.net/faq/ for more information.                     #
#-----------------------------------------------------------------------------#

Date: Tue, 15 Feb 2005 17:32:07 EST
From: Gdguitarbabe11@aol.com
Subject: j/jet/rollover_dj.crd 

Song: Rollover DJ
Artist: Jet
Album: Get Born
 
Tabbed by Katie Lawlor
Contact me at gdguitarbabe11@aol.com
 
Hey, this is an awesome song. Standard tuning, pretty easy. Check out my
other tabs of Timothy, another awesome song by my favorite Aussies, Jet,
and Mr. Brightside, by the amazing Killers. Enjoy!
 
Intro:
    C   D   D  C   D  C  C   G5 G5  C  D  D  C  D  C  G
e----------------------------3--3---------------------3
B---5---7---7--5---7--5--5---3--3---5--7--7--5--7--5--3
G---5---7---7--5---7--5--5---0--0---5--7--7--5--7--5--4
D---5---7---7--5---7--5--5---0--0---5--7--7--5--7--5--5
A---3---5---5--3---5--3--3----------3--5--5--3--5--3--5
E----------------------------3--3---------------------3
 
Verse:
"Got your ryhmes going round..."
    D  D          G/B    Cadd9
e----------------------------
B---3--3-----------3--3--3--3
G---2--4-------2---0--0--0--0  <--Do that 3x, then
D---0--0--3-4--0---0--0--2--2    and open A and repeat
A------------------2--2--3--3    till chorus
E----------------------------
 
Chorus:
"Hey, Rollover DJ, your spinning..."
 
D----C----F----G
 
email me if you have any questions. Good Luck!