´╗┐ i | iced earth | ghost of freedom tab online player | |


  
#-----------------------------PLEASE NOTE-------------------------------------#
#This OLGA file is the author's own work and represents their interpretation  #
#of the song. You may only use this file for private study, scholarship, or   #
#research. Remember to view this file in Courier, or some other monospaced    #
#font. See http://www.olga.net/faq/ for more information.                     #
#-----------------------------------------------------------------------------#

From: EJEGuitarist82@aol.com
Date: Sat, 18 Aug 2001 03:36:40 EDT
Subject: i/iced_earth/ghost_of_freedom.tab

Iced Earth: Ghost of Freedom
Album: Horror Show (2001)
Transcribed by: Eric (EJEGuitarist82@aol.com)


x   =  mute with fret-hand
*   =  palm mute
X\\ =  pick slide
h   =  hammer-on
p   =  pull-off
~   =  vibrato
t   =  finger tap
/   =  slide up
\   =  slide down
h   =  natural harmonics
a   =  artificial harmonics
(9) =  ghost note
tm  =  trem picking
tr  =  trill


Tuning: half step down from standard

Riff 1  (Acoustic)
eb|-------0---------------------|
Bb|---------1-----------3--1----|
Gb|-----2-----2-------0-------0-|
Db|---2---------2---2-----------|
Ab|-0-------------3-------------|
Eb|-----------------------------|
  "Every time you think about it..."

eb|-------3--------------------0---|
Bb|----------0-----------1-3-1-0h1-|
Gb|------------0-------0-----------|
Db|-----0--------0---2-------------|
Ab|---2------------3---------------|
Eb|-3------------------------------|
  "It tears you up inside..."


Riff 2  (Acoustic)
Guitar 1 (These are the chords, listen for strumming pattern)
eb|--0--------0--------0--|
Bb|--1--------1--------0--|
Gb|--2--------0--------0--|
Db|--2--------2--------2--|
Ab|--0--------3--------2--|
Eb|--------------------0--|
  "Here I'll stand..."

Guitar 2 (Clean)
eb|------------------------------|
Bb|----12------------------------|
Gb|-----h-------9-10-/12--10-9~~-|
Db|----------12------------------|
Ab|-19---------------------------|
Eb|--h---------------------------|

eb|-----------------------------------------------------|
Bb|----12-----------------------------------------------|
Gb|-----h---------------------------12-10-9-10--9-------|
Db|-------------9-10-/12--10-9~~------------------12-10-|
Ab|-19-------12-----------------------------------------|
Eb|--h--------------------------------------------------|


Play Riff 1  "Every night you go to sleep..."
Play Riff 2  "Here I'll stand..."


Riff 3 (Distortion, Solo Rhythm)                      Final chord
eb|---------------------------------------------------|------|
Bb|---------------------------------------------------|------|
Gb|---------------------------------------------------|------|
Db|----------5------5/7-7-----------------------------|------|
Ab|-7--------3--3-3-3/5-5--2---------3~-2~---2~-------|--7\--|
Eb|-5----5-5---------------0----0-0--a--a--5-a---5-3~-|--5\--|
         * *    * *             * *                a


Solo
Eb|-------------------------------------------------|
Bb|----12----------12---12b14-12b14~--12~-----12----|
Gb|-/9----9~----/9----9--------------------/9----9~-|
Db|-------------------------------------------------|
Ab|-------------------------------------------------|
Eb|-------------------------------------------------|

eb|--------------------------------------------------------------|
Bb|----12---13b15-13b15-13~------12---------12---12b14-12b14-12~-|
Gb|-/9----9-------------------/9----9~---/9----9-----------------|
Db|--------------------------------------------------------------|
Ab|--------------------------------------------------------------|
Eb|--------------------------------------------------------------|

eb|--------------10---------------------|
Bb|----12---13----------/17~~--17-20-17-|
Gb|-/9----9----9----9-------------------|
Db|-------------------------------------|
Ab|-------------------------------------|
Eb|-------------------------------------|

eb|----------------------------------------------------------|
Bb|-20b22~--20-17-20b22r20b22~~--20b22~--20-17-20b22r20b22~~-|
Gb|----------------------------------------------------------|
Db|----------------------------------------------------------|
Ab|----------------------------------------------------------|
Eb|----------------------------------------------------------|

eb|-------------------------------------|
Bb|-------------------------------------|
Gb|-------------------------------------|
Db|-------------------------------------|
Ab|-------------------------------------|
Eb|-------------------------------------|

End Solo


Play Riff 1   "You speak to me..."
Play Riff 2   "Here we stand..."

Riff 3a (Distortion)
eb|---------------------------------------------------|
Bb|---------------------------------------------------|
Gb|---------------------------------------------------|
Db|----------5------5/7-7-----------------------------|
Ab|-7--------3--3-3-3/5-5--2---------3~-2~---2~-------|
Eb|-5----5-5---------------0----0-0--a--a--5-a---5-3~-|
         * *    * *             * *                a
   "Don't tread on me..."


If you have any questions or comments...don't email me.
If you have corrections to make...go right ahead.


"I'll beat you with your spinal cord, split your skull in two...
  ...I'll feast on your intestines, there's nothing I can't do"