´╗┐ h | hot water music | bleeder tab online player | |


  
#-----------------------------PLEASE NOTE-------------------------------------#
#This OLGA file is the author's own work and represents their interpretation  #
#of the song. You may only use this file for private study, scholarship, or   #
#research. Remember to view this file in Courier, or some other monospaced    #
#font. See http://www.olga.net/faq/ for more information.                     #
#-----------------------------------------------------------------------------#

Date: Thu, 22 Apr 2004 19:57:31 -0400 (EDT)
From: Joseph Visaggi 
Subject: h/hot_water_music/bleeder.tab

Bleeder as performed by Hot Water Music
Original version by Alkaline Trio
TABbed/Chorded by Joseph P. Visaggi


Intro (play 4 times)
-----
e|-------------------|
B|-------------------|
G|-------------------|
D|--2-2-2-3-3-3-3-3--|
A|--3-3-3-3-3-3-3-3--|
E|-------------------|


Verses (play 4 times)
------
e|-------------------|-------------------|
B|-------------------|-------------------|
G|-------------------|-------------------|
D|--2-2-2-3-3-3-3-3--|--2-2-2-3-3-3-3-3--|
A|--3-3-3-3-3-3-3-3--|--3-3-3-3-3-3-3-3--|
E|-------------------|-------------------|
		    You   came to...
   ...leaves

e|-------------------|-------------------|
B|-------------------|-------------------|
G|-------------------|-------------------|
D|-------------------|-------------------|
A|--2-2-2-3-3-3-3-3--|--3-3-3-3-3-3-3-3--|
E|--3-3-3-3-3-3-3-3--|--1-1-1-1-1-1-1-1--|
 ...dream.	    The kind that...


Choruses
--------
e|---------------------------|
B|---------------------------|
G|--12-12-12-12-12-12-12-12--|
D|--10-10-10-10-10-10-10-10--|
A|---0--0--0--0--0--0--0--0--|
E|---------------------------|
		It's one...

e|---------------------------|
B|---------------------------|
G|--10-10-10-10--9--9--9--9--|
D|--10-10-10-10-10-10-10-10--|
A|---0--0--0--0--0--0--0--0--|
E|---------------------------|
	      I  never

e|-------------------|-------------------|
B|-------------------|-------------------|
G|-------------------|-------------------|
D|--5-5-5-5-5-5-5-5--|--5-5-5-5-5-5-5-5--|
A|--3-3-3-3-3-3-3-3--|--2-2-2-2-2-2-2-2--|
E|-------------------|-------------------|
    said...		happy...

e|-------------------|-------------------|
B|-------------------|-------------------|
G|-------------------|-------------------|
D|-------------------|-------------------|
A|--5-5-5-5-5-5-5-5--|--5-5-5-5-5-5-5-5--|
E|--3-3-3-3-3-3-3-3--|--3-3-3-3-3-3-3-3--|
    heart...		head.

e|-------------------|-------------------|
B|-------------------|-------------------|
G|-------------------|-------------------|
D|-------------------|-------------------|
A|--2-2-2-2-2-2-2-2--|--3-3-3-3-5-5-5-5--|
E|--0-0-0-0-0-0-0-0--|--1-1-1-1-3-3-3-3--|
    A lonely... 	suspended...


Outro
-----
e|-------------------|
B|-------------------|
G|-------------------|
D|--2-2-2-3-3-3-3-3--|
A|--3-3-3-3-3-3-3-3--|
E|-------------------|

That goes 8 times.  End on one hit of:
e|-----|
B|-----|
G|-----|
D|--2--|
A|--3--|
E|-----|


The song's pattern is:
Intro
Verse 1
Chorus (no lyrics)
Verse 2
Chorus 1
Verse 1
Chorus 1
Chorus 2
Outro



Any questions or comments can be directed to hempick2004@hotmail.com