´╗┐ h | hole | northern star tab online player | |


  
#-----------------------------PLEASE NOTE-------------------------------------#
#This OLGA file is the author's own work and represents their interpretation  #
#of the song. You may only use this file for private study, scholarship, or   #
#research. Remember to view this file in Courier, or some other monospaced    #
#font. See http://www.olga.net/faq/ for more information.                     #
#-----------------------------------------------------------------------------#

From: "Jordy de Meij" 
Subject: h/hole/northern_star.tab
Date: Wed, 1 Aug 2001 23:39:18 +0200

Nothern star by Hole.=20
Written by Hole.
Hole is Courtney Love, Eric Erlandson, Melissa auf der Maur, Patty =
Schmecel
Northern star is from the album Celeberty Skin.

Intro:
   F in barre |  C      | E in 7th |  A5 |
E|---1---1-----1----1-----0----------5------|
B|----3---------3----------7---------5---7--|
G|-----3----------2---------0--------5---7--|
D|-----------------------------------5-6----|
A|-----------------------------------5------|
E|-----------------------------------5------|
     You`ve to play all the strings from A5 once together.

Couplet:
| Em      |    Em(b6)   Em |   Am     |   Asus4  Am  |

 Play this 7x, after this play 1x next chords.

| Am      |    C   Cadd2  C|   Em   |  Em   Em(b6)  Em|


Pre-Chorus:
| Am  | D/F#  | Em   | D/F#  | Am  | D/F#  | C/E  | E Em  |

| Am  | D/F#  | C/E  | E  Em  | F5  C/E  | E  A5  |

 After Pre-Chorus play the intro again.

Chorus:
| G5  | F5  C/E  | E  A5  | Play 3x
| Fsus2  C/E  | E Asus2  | Em  |  Em(b6) Em  | Play 1x
| F5  C/E  | E  A5  | Play 1x
| E(type2)  | C/E  | Play 2x
| Am  | D/F#  | G5  | E  Em  |

When you played chorus play Pre-chorus again.
All the chords are for the first part of the lyrics, the 2nd part of=20
the lyrics you play this all again.

Chords:
  Am        Asus4     Em      Em(b6)    C        Cadd2    D/F#    C/E
E|------|  |------|  |----|  |------|  |-----|  |-----|  |-2--|  |-0---|
B|------|  |------|  |-2--|  |-2----|  |---3-|  |--3--|  |----|  |----3|
G|---2--|  |---2--|  |-2--|  |-2----|  |--2--|  |-2---|  |----|  |---2-|
D|---2--|  |---2--|  |----|  |------|  |-----|  |-----|  |-2--|  |-----|
A|-1----|  |-3----|  |----|  |--3---|  |-1---|  |---4-|  |--3-|  |--1--|
E|------|  |------|  |----|  |------|  |-----|  |-----|  |-2--|  |-----|

  E        E(type2)    G5
E|-----|  |--------|  |-3-|
B|---2-|  |--7-----|  |---|
G|---2-|  |-6------|  |---|
D|-1---|  |--------|  |---|
A|-----|  |--------|  |-3-|
E|-----|  |--------|  |-3-|


Jordy (boneshedder@hotmail.com)