´╗┐ h | helmet | streetcrab crd online player | |


  
#-----------------------------PLEASE NOTE-------------------------------------#
#This OLGA file is the author's own work and represents their interpretation  #
#of the song. You may only use this file for private study, scholarship, or   #
#research. Remember to view this file in Courier, or some other monospaced    #
#font. See http://www.olga.net/faq/ for more information.                     #
#-----------------------------------------------------------------------------#

From: "steve and andy brady" 
Subject: h/helmet/streetcrab.crd
Date: Sat, 6 Apr 2002 22:57:51 +1000

Title  : Street Crab
Artist : Helmet
Album  : Betty
Tab By : Andy Brady (bluesexplosionman@hotmail.com)
[0:00]
e--------------------|
B--------------------|
G--------------------|
D------------------5-|
A--------2-----4/5---|
E--0-3-0---3/4-------|

e------------------------------------------------------------|
B------------------------------------------------------------|
G------------------------------------------------------------|
D---------------------------------------------5--4h5-4h5--4--|
A--------2----------2-----4h5-------2-----4/5----------------|
E--0-3-0---3--0-3-0---3/4-----0-3-0---3/4--------------------|

e------------------------------------------------|
B------------------------------------------------|
G------------------------------------------------|
D---------------------------------------------5--|
A--------2----------2-----4h5-------2-----4/5----|
E--0-3-0---3--0-3-0---3/4-----0-3-0---3/4--------|

[0:25]
e---------------------------------------------------------|
B---------------------------------------------------------|
G---------------------------------------------------------|
D--0-0-3-0-3-x-0-0-0-3-0-3-x-0-0-3-0-3-x-0-0-0-3-0-3-3-3-3|
A--0-0-3-0-3-x-0-0-0-3-0-3-x-0-0-3-0-3-x-0-0-0-3-0-3-3-3-3|
D--0-0-3-0-3-x-0-0-0-3-0-3-x-0-0-3-0-3-x-0-0-0-3-0-3-3-3-3|

[0:34]       First I'll panic quick...
[1:34]       Safe and sound...      =20
e---------------------------------------------------------|
B---------------------------------------------------------|
G---------------------------------------------------------|
D--0-0-3-0-3-x-0-0-0-3-0-3-x-0-0-3-0-3-x-0-0-0-3-0-3-5-5-5|
A--0-0-3-0-3-x-0-0-0-3-0-3-x-0-0-3-0-3-x-0-0-0-3-0-3-5-5-5|
D--0-0-3-0-3-x-0-0-0-3-0-3-x-0-0-3-0-3-x-0-0-0-3-0-3-5-5-5|
              Agree to anything...
e--------------------------------------------------------|
B--------------------------------------------------------|
G--------------------------------------------------------|
D--0-0-3-0-3-x-0-0-0-3-0-3-x-0-0-3-0-3-x-0-0-0-0-0-2--3-3|
A--0-0-3-0-3-x-0-0-0-3-0-3-x-0-0-3-0-3-x-0-0-0-0-0-2--3-3|
D--0-0-3-0-3-x-0-0-0-3-0-3-x-0-0-3-0-3-x-0-0-0-0-0-2--3-3|

              Then my skin flakes...
e---------------------------------------------------------|
B---------------------------------------------------------|
G---------------------------------------------------------|
D--0-0-3-0-3-x-0-0-0-3-0-3-x-0-0-3-0-3-x-0-0-0-3-0-3-5-5-5|
A--0-0-3-0-3-x-0-0-0-3-0-3-x-0-0-3-0-3-x-0-0-0-3-0-3-5-5-5|
D--0-0-3-0-3-x-0-0-0-3-0-3-x-0-0-3-0-3-x-0-0-0-3-0-3-5-5-5|

             I'm not making sense...                  =20
e----------------------------------------|
B----------------------------------------|
G----------------------------------------|
D--0-0-3-0-3-x-0-0-0-3-0-3-x-0-0-3-0-3---|
A--0-0-3-0-3-x-0-0-0-3-0-3-x-0-0-3-0-3---|
D--0-0-3-0-3-x-0-0-0-3-0-3-x-0-0-3-0-3---|

       ...just ignore me.
e---------------------------------------------|
B---------------------------------------------|
G---------------------------------------------|
D--3-3-3--0--2-3-3-0--2-3-3-0--2-3-3-0--3-5-5-|
A--3-3-3--0--2-3-3-0--2-3-3-0--2-3-3-0--3-5-5-|
D--3-3-3--0--2-3-3-0--2-3-3-0--2-3-3-0--3-5-5-|

[1:05]      Thirst I had at last... =20
[2:06]
e------------------------------------------------------------|
B------------------------------------------------------------|
G------------------------4/5-4-------------------------------|
D--0-0-3-0-3-3-0-0-0-3-0-4/5-4-0-0-0-3-0-3-3-0--2/3-0-1-5-6--|  X3
A--0-0-3-0-3-3-0-0-0-3-0-2/3-2-0-0-0-3-0-3-3-0--2/3-0-1-5-6--|
D--0-0-3-0-3-3-0-0-0-3-0-------0-0-0-3-0-3-3-0--2/3-0-1-5-6--|

e-------------------------------------------------------|
B-------------------------------------------------------|
G-------------------------------------------------------|
D--0-0-3-0-3-x-0-0-0-3-0-3-x-0-0-3-0-3-x-0-0-0-3-0-5-2--|
A--0-0-3-0-3-x-0-0-0-3-0-3-x-0-0-3-0-3-x-0-0-0-3-0-5-2--|
D--0-0-3-0-3-x-0-0-0-3-0-3-x-0-0-3-0-3-x-0-0-0-3-0-5-2--|


[2:27]     Shut my mouth... =20
e------------------------------------------------------|
B------------------------------------------------------|
G------------------------4/5-4-------------------------|
D--0-0-3-0-3-3-0-0-0-3-0-4/5-4-0-0-0-3-0-3-3-0--2/3-0--|
A--0-0-3-0-3-3-0-0-0-3-0-2/3-2-0-0-0-3-0-3-3-0--2/3-0--|
D--0-0-3-0-3-3-0-0-0-3-0-------0-0-0-3-0-3-3-0--2/3-0--|

[2:32] ...matter
e--------------------------------------------------|
B--------------------------------------------------|
G--------------------------------------------------|
D--2-5--5-5--5-5--5-5/7-7-7-0--0-0--0-0-0-0h1-2h3--|
A--2-5--5-5--5-5--5-5/7-7-7-0--0-0--0-0-0-0h1-2h3--|
D--2-5--5-5--5-5--5-5/7-7-7-0--0-0--0-0-0-0h1-2h3--|

e---------------------------|
B---------------------------|
G---------------------------|
D--3-3-3-3-3-3-3-3-3-3-3-3--|
A--3-3-3-3-3-3-3-3-3-3-3-3--|
D--3-3-3-3-3-3-3-3-3-3-3-3--|

[2:42]
[2:55]
e-----------------------------------------------------------------|
B-----------------------------------------------------------------|
G--5-5-5-5-5-5-5-5-5-5-5-5-5-3-3-3--------------------------------|    =20
D--5-5-5-5-5-5-5-5-5-5-5-5-5-3-3-3-0-0-0-0-5--5-5--5-5--5-5-7-7-7-|   =20
A--3-3-3-3-3-3-3-3-3-3-3-3-3-1-1-1-0-0-0-0-5--5-5--5-5--5-5-7-7-7-|
D----------------------------------0-0-0-0-5--5-5--5-5--5-5-7-7-7-|

e-----------------------------------------------------------|
B-----------------------------------------------------------|
G-----------------------------------------------------------|
D--0-0-0-0-0-0-0-0-0-0-0-0-0-0-1-2-3-3-3-3-3-3-3-3-3-3-3-3--|
A--0-0-0-0-0-0-0-0-0-0-0-0-0-0-1-2-3-3-3-3-3-3-3-3-3-3-3-3--|
D--0-0-0-0-0-0-0-0-0-0-0-0-0-0-1-2-3-3-3-3-3-3-3-3-3-3-3-3--|


e----------------------------------|
A----------------------------------|
D----------------------------------|
G-0-0h1-2h3-3-3-3-3-3-3-3-3-3-3-3--|  X2
B-0-0h1-2h3-3-3-3-3-3-3-3-3-3-3-3--|
D-0-0h1-2h3-3-3-3-3-3-3-3-3-3-3-3--|

e---------------|
A---------------|
D---------------|
G--0-0h1-2h3-3--|
B--0-0h1-2h3-3--|
D--0-0h1-2h3-3--|