´╗┐ f | fuel | wont back down btab online player | |


  
#-----------------------------PLEASE NOTE-------------------------------------#
#This OLGA file is the author's own work and represents their interpretation  #
#of the song. You may only use this file for private study, scholarship, or   #
#research. Remember to view this file in Courier, or some other monospaced    #
#font. See http://www.olga.net/faq/ for more information.                     #
#-----------------------------------------------------------------------------#

Date: Mon, 7 Apr 2003 12:40:02 -0700 (PDT)
From: Steven Markle 
Subject: f/fuel/wont_back_down.btab

************************************************************
Tabbed by: Steve-O
Song Title: Won't Back Down (Daredevil Soundtrack)
Artist: Fuel
Album: none
Date: April 7, 2003
************************************************************

Use "DROP C" Tuning.  That is Drop D, with the lowest
string dropped 
one additional step down to C. (should be an octave
down from C - 
3rd fret on A string)
 
Intro

(Accent first two notes with bass drum)

G---------------------------------------------------------------
D---------------------------------------------------------------
A---------------------------------------------------------------
C---0--0----0---0---0-0--1------0---0-----0---0---0---0--1------

Repeat.  Last time through play 
 
G-----------------------------------------
D-----------------------------------------
A-----------------------------------------
C---1--0------1--0-----1---0------1--0----

     Pull      Pull     Pull      Pull

Chorus
 
G-------------------------------------------------------------------------------
D-------------------------------------------------------------------------------
A-------------------------------------------------------------------------------
C--0---0----0---0---0--------10----8---8---8-----10-----10---10---5--5----5--5--
 
                                                      
            Accent  accent 
G-----------------
D-----------------
A-----------------
C---5---5----3----

Repeat once


Verse
 
Listen to the track to get the rhythm right, this riff
just basically 
goes down chromatically from 12 and the rhythm pauses
a little bit on 
the 8th fret.

G-------------------------------------------------------------------------------
D-------------------------------------------------------------------------------
A-------------------------------------------------------------------------------
C-0--0----12--12---11--11---10--10--10--9--9---8--8-----6-6-6-5-5-5-3-3---------

Repeat Chorus
Verse

Bridge in song:
  
G------------------------------------------------------
D------------------------------------------------------
A-------------6---8---10--------------6----8---10------
C----8---8-------------------8---8---------------------

Repeat and on last time, play
 
G----------------------------------------
D----------------------------------------
A----------------------------------------
C----8---8-----10--10----10-10-10-10-----

Play Intro Part again

Back to Verse

Last part goes:
 
G----------------------------------------------
D----------------------------------------------
A----------------------------------------------
C--0---0---0---0-----3---5---7--8----8----8----

Play this four times and stop...the song ends with
vocals:

"I'll give you hell...."