f | fuel | shimmer crd online player | |


  
#-----------------------------PLEASE NOTE-------------------------------------#
#This OLGA file is the author's own work and represents their interpretation  #
#of the song. You may only use this file for private study, scholarship, or   #
#research. Remember to view this file in Courier, or some other monospaced    #
#font. See http://www.olga.net/faq/ for more information.                     #
#-----------------------------------------------------------------------------#

From: "Rick Thornburgh" 
Subject: f/fuel/shimmer.crd
Date: Sat, 29 Jun 2002 05:32:10 +0000

Artist: Fuel
Song: Shimmer
Album: Sunburn

Tabbed by Rick Thornburgh

Standard tuning
intro/verse   -I'm too lazy to write out the strumming pattern,
chords used:      listen and figure it out
e-|--0--0--0--0---------------
B-|--5--7--8--7---------------
G-|--0--0--0--0---------------
D-|--5--7--9--7---------------
A-|--3--5--7--5---------------
E-|---------------------------

chorus
e-|--0--0--3--2---------------
B-|--0--1--3--3---------------
G-|--0--2--0--2---------------
D-|--2--2--2--0---------------
A-|--2--0--3------------------
E-|--0------------------------

interlude
e-|--5-4-0-4-0------------
B-|------------0-1-2------
G-|-----------------------
D-|-----------------------
A-|-----------------------
E-|-----------------------
mess with this, play 4x

-flik3@hotmail.com
Date: Fri, 11 Apr 2003 18:22:36 EDT
From: Jim0770@aol.com
Subject: f/fuel/shimmer.crd

Artist: Fuel
Song: Shimmer
Album: Sunburn

Tabbed by James Leeper.
Rick Thornburgh's tab is correct, but here's another version I came up
with using different voicings. If you want to play along with the CD put
a capo on 5. I like to play it with the capo somewhere around 2.

INTRO/VERSE
e---------------------
B--0------------------
G--4--/6--7--6--------
D--0---0--0--0--------
A--x---0--x--0--------
E--3--/5--7--5--------

CHORUS
Bm Em D A


That's it. If you like singing in a lower key, or if quick chord changes
are a problem on your guitar, you might like this one