´╗┐ f | fuel | last time tab online player | |


  
#-----------------------------PLEASE NOTE-------------------------------------#
#This OLGA file is the author's own work and represents their interpretation  #
#of the song. You may only use this file for private study, scholarship, or   #
#research. Remember to view this file in Courier, or some other monospaced    #
#font. See http://www.olga.net/faq/ for more information.                     #
#-----------------------------------------------------------------------------#

From: "Rick Thornburgh" 
Subject: f/fuel/last_time.tab
Date: Thu, 17 Jan 2002 03:33:53 

Artist: Fuel
Song: Last Time
Album: Something Like Human

Tabbed by Rick Thornburgh

This is a great song and it is
easy to play

Dropped D tuning
Intro/Verse
Gtr. 1
e-|------------------------------------------------------
B-|------------------------------------------------------
G-|-11--11--11-11-11-11--11--11--11-11-11-11-------------
D-|--x---x---x--x--x--x--11--11--11-11-11-11-------------
A-|--9---9---9--9--9--9---9---9---9--9--9--9-------------
D-|--0---0---0--0--0--0---9---9---9--9--9--9-------------

Gtr. 2
e-|------------------------------------------------------
B-|------------------------------------------------------
G-|-11--11--11-11-11-11--11--11--11-11-11-11b12----------
D-|--x---x---x--x--x--x---x---x---x--x--x--x-------------
A-|--9---9---9--9--9--9---9---9---9--9--9--9b10----------
D-|------------------------------------------------------

First 4 times of the verse strum once then
on the last time go:
Gtr. 1			     Gradual bend
e-|------------------------------------------------------
B-|------------------------------------------------------
G-|--11------11------11/----3^---------------------------
D-|---x------11------11/-2-------------------------------
A-|---9-------9-------9/-2-------------------------------
D-|---0-------9-------9/-2-------------------------------

Chorus:
Gtr. 1		* = Harmonic
e-|------------------------------------------------------
B-|------------------------------------------------------
G-|------------------------------------------------------
D-|-0-4--0-4--0-4*-4*-4--0-2-2---------------------------
A-|-0-4--0-4--0-4*-4*-4--0-2-2---------------------------
D-|-0-4--0-4--0-4*-4*-4--0-2-2---------------------------

Gtr. 2
e-|------------------------------------------------------
B-|-7-10--7-10--7---10-7-9b10r9--------------------------
G-|------------------------------------------------------
D-|------------------------------------------------------
A-|------------------------------------------------------
D-|------------------------------------------------------

the last time on the chorus, Gtr. 1 plays:
e-|------------------------------------------------------
B-|------------------------------------------------------
G-|------------------------------------------------------
D-|------------------------------------------------------
A-|-------5-4-2-0----------------------------------------
D-|-0-2-4---------4-0------------------------------------

Interlude
e-|------------------------------------------------------
B-|------------------------------------------------------
G-|------------------------------------------------------
D-|-0-2-2-2-0-2-2-2-0-2-2-2-0-0-0-0----------------------
A-|-0-2-2-2-0-2-2-2-0-2-2-2-0-0-0-0----------------------
D-|-0-2-2-2-0-2-2-2-0-2-2-2-0-0-0-0----------------------
	palm mute
"everything I feel I know you know..."

Gtr. 2 solo (use slide)
			/// = Gradual slide
e-|-7///10----------------10-9-10-9-10--12///------------
B-|---------10-7-10-7-10---------------------------------
G-|------------------------------------------------------
D-|------------------------------------------------------
A-|------------------------------------------------------
D-|------------------------------------------------------

End part  "Now......."
Gtr. 1
e-|------------------------------------------------------
B-|------------------------------------------------------
G-|------------------------------------------------------
D-|-0-0-0-0-0-0-4-4-2-2-2-2------------------------------
A-|-0-0-0-0-0-0-4-4-2-2-2-2------------------------------
D-|-0-0-0-0-0-0-4-4-2-2-2-2------------------------------

Gtr. 2 (use slide)
e-|--------------------------------------------------
B-|-7-9-7-9--9-10-9----7-9-7-9--9-10-9-12------------
G-|-----------------6--------------------------------
D-|--------------------------------------------------  2x
A-|--------------------------------------------------
D-|--------------------------------------------------

e-|-14-16-14-16--16-17-16-----14-16-14-16--16-17-16-19-
B-|-----------------------14---------------------------
G-|----------------------------------------------------
D-|---------------------------------------------------- 2x
A-|----------------------------------------------------
D-|----------------------------------------------------

end on
e-|---
B-|---
G-|-0-
D-|-0-
A-|-0-
D-|---