´╗┐ f | fuel | innocent crd online player | |


  
#-----------------------------PLEASE NOTE-------------------------------------#
#This OLGA file is the author's own work and represents their interpretation  #
#of the song. You may only use this file for private study, scholarship, or   #
#research. Remember to view this file in Courier, or some other monospaced    #
#font. See http://www.olga.net/faq/ for more information.                     #
#-----------------------------------------------------------------------------#

Date: Sat, 18 Nov 2000 00:57:24 -0500
From: Matthew Carroll 
Subject: f/fuel/innocent.crd


FUEL-INNOCENT (track 11 from the album 'Something like
Human')
Music & Lyrics-Carl Bell                    
Transcribed by Matthew Carroll

Standard Tuning

Alright this song didn't take long to figure out as it
is fairly
easy. It's a good emotionally driven song, so it is
good to get
into. I hope you enjoy it!!!!!!!

/-slide up

Verses
e-0-0---0---0-0-------
B-8-8-/-10--6-4-------
G-9-9-/-11--7-5-------
D-9-9-/-11--7-5-------
A-7-7-/-9---5-3-------
E-0-0---0---0-0-------
Satan...      you know where I lie

Chorus
e-0-----------------3-----3-2------
B-0-----------------3-----3-3------
G-0-----------------0-----0-2------
D-2-----------------2-----0-0------
A-2-----------------3-----2-0------
E-0-----------------0-----3-0------
  All our lives get complicated

CHANGE IN CHORUS
e-0----------------2-0-------0---2-------------------
B-0----------------3-1-------0---3-------------------
G-0----------------2-0-------0---2-------------------
D-2----------------0-2-------2---0-------------------
A-2----------------0-3-------2---0-------------------
E-0----------------0-0-------0---0-------------------
Never were we told  what the future would hold...

And thats all ther is exept the solo and I think thats
a bit to
far out of my leauge so I'm just gonna leave it.

Any corrections please send them to
SLIPKNOT847@yahoo.com
Thanks