f | fuel | bad day tab online player | |


  
#-----------------------------PLEASE NOTE-------------------------------------#
#This OLGA file is the author's own work and represents their interpretation  #
#of the song. You may only use this file for private study, scholarship, or   #
#research. Remember to view this file in Courier, or some other monospaced    #
#font. See http://www.olga.net/faq/ for more information.                     #
#-----------------------------------------------------------------------------#

Date: Sun, 25 Mar 2001 09:31:31 -0500
From: blockade_runner@canoemail.com
Subject: f/fuel/bad_day.tab

Song: Bad Day
Album: Something Like Human
Written By: Fuel
Tuning: standard tuning
Tabbed by: Heston L'Abb (blockade_runner@canoemail.com)
Notes: Easy Song, just listen to the song for the rythem
and when to play which chords


Chorus/Verse
   A Esus A             D   Dmin
e|----------------------2---1-----|
b|-2--p0h-2---2-p0h-2---3---3-----|
g|-2---2--2---2--2--2---2---2-----|
d|-2---2--2---2--2--2-------------|
a|------------0--0--0-------------|
e|------------2--2--2-------------|

PreChorus (and she swears there's nothing wrong...)
   D   E   F#m   Bm     (and on the third)
e|-2-------2-----0--0-----------0------|
b|-3---0---2-----2-h3-----------0------|
g|-2---1---2-----4--4-----------2------|
d|-0---2---4-----4--4-----------2------|
a|-----2---4--------------------0------|
e|-----0---2---------------------------|

Solo

e|---------------------------------------------------|
b|---------------------------------------------------|
g|---------------------------------------------------|
d|--------------11-----------------------------------|
a|--11--12--12-------12--11--11h12p11--7--7----------|
e|---------------------------------------------------|

e|---------------------------------------------------|
b|---------------------------------------------------|
g|---------------------------------------------------|
d|--------------11-----------------------------------|
a|--11--12--12-------12--11--11h12p11h12p11----------|
e|---------------------------------------------------|

e|---------------------------------------------------|
b|---------------------------------------------------|
g|---------------------------------------------------|
d|--------------11-----------------------------------|
a|--11--12--12-------12--11--11h12p11--7h8p7---------|
e|---------------------------------------------------|

e|---------------------------------------------------|
b|---------------------------------------------------|
g|---------------------------------------------------|
d|--------------11---------------14-14---------------|
a|--11--12--12-------12--11--11----------------------|
e|---------------------------------------------------|

The outro has guitar 1 playing the solo and guitar 2 (acoustic) 
playing the chorus

Sign up today for your Free E-mail at: http://www.canoe.ca/CanoeMail