´╗┐ f | fuel | bad day crd online player | |


  
#-----------------------------PLEASE NOTE-------------------------------------#
#This OLGA file is the author's own work and represents their interpretation  #
#of the song. You may only use this file for private study, scholarship, or   #
#research. Remember to view this file in Courier, or some other monospaced    #
#font. See http://www.olga.net/faq/ for more information.                     #
#-----------------------------------------------------------------------------#

Date: Sat, 18 Nov 2000 00:52:37 -0500
From: Matthew Carroll 
Subject: f/fuel/bad_day.crd

FUEL-BAD DAY (track 05 from the album 'Something like Human')
MUSIC AND LYRICS-CARL BELL
TRANSCRIBED BY MATTHEW CARROLL 

Standard Tuning

I'm a big fan of FUEL and they have moved me to do my
first TAB 
I believe this is fairly accurate as it is fairly
simple I'm not 
gonna go into too much strumming detail just the basic
stuff.
It sounds good on an acoustic guitar or just a clean
sounding 
electric. I hope u enjoy it!!!

INTRO
e-0-0--------------------------------0-0-0-0-0--
B-0h2--------------------------------0-0-0-0h2--
G-2-2-keep strumming A until change -2-2-2-2-0--
D-2-2--------------------------------2-2-2-2-0--
A-0-0--------------------------------0-0-0-0-0--
E-----------------------------------------------

VERSE
Is the same as intro with this added on
e-0-0-0--2--1-1--
B-2-0h2--3--3-3--
G-2-2-2--2--2-2--
D-2-2-2----------  the strumming is easy to figure out just listen to the CD 
A-0-0-0----------     
E-2-2-2----------

CHORUS
  D  E  F5#                          D E  B#5 
e-2--------------                  --2--------------
B-3--------------                  --3-------------- 
G-2--1-----------                  --2-1--2--------- 
D----2--4--------                  ----2--2---------
A----2--4-------- then on last one ----2--1---------
E-------2--------                  ----------------- 



and thats about it!!! you just have to figure out the
strumming 
patterns, they're not that hard so I'll try to have
the solo in later but 
this is all for now. THANKS

If you have any corrections please send them to: 
        slipknot847@yahoo.com.au 
      it would be much appriciated

__________________________________________________