´╗┐ f | fu manchu | evil eye tab online player | |


  
#-----------------------------PLEASE NOTE-------------------------------------#
#This OLGA file is the author's own work and represents their interpretation  #
#of the song. You may only use this file for private study, scholarship, or   #
#research. Remember to view this file in Courier, or some other monospaced    #
#font. See http://www.olga.net/faq/ for more information.                     #
#-----------------------------------------------------------------------------#

From: "John Truck" 
Subject: f/fu_manchu/evil_eye.tab
Date: Wed, 14 Aug 2002 14:26:18 +0000

"Evil Eye" by Fu Manchu
Off the album "The Action is Go" (1997)
Tabbed by John Truck (rex_of_all@hotmail.com)

Tablature Assistance:
#h# - hammer on
#p# - pull off
#b# - bend
#br - bend and release
#~~ - vibrato
#b~ - bend with vibrato
#/# - slide up to #
#\# - slide down to #
(#) - ghost note (optional)

Intro (Lead Line, with Wah)  x12  (Rhythm, with Distortion)        x8
e||5b6-----------------------6br||-----------------------------------||
B||-----------------------------||-----------------------------------||
G||-----------------------------||-----------------------------------||
D||-----------------------------||0-0--------------------------------||
A||----5-5-5-5-5b-5b-5b-5~~~----||0-0--------------------------------||
D||-----------------------------||0-0--3-4-5/7--/8-9-10--8-9-10(/11)-||

Verses (Distortion)                 x8
e||-----------------------------------||
B||-----------------------------------||
G||-----------------------------------||
D||0-0--------------------------------||
A||0-0--------------------------------||
D||0-0--3-4-5/7--/8-9-10--8-9-10(/11)-||

Chorus (Lead Line, with Wah)        x1 (Rhythm, with Distortion)x4
e||-----------------------------------||-------------------------||
B||2b~-3b~--2b~-3b~--2b~-3b~--2b~-3b~-||-------------------------||
G||-----------------------------------||-------------------------||
D||-----------------------------------||-2-2--3-5-6--(6)---------||
A||-----------------------------------||-2-2--3-5-6--(6)---------||
D||-----------------------------------||-2-2--3-5-6--(6)---------||

Riff 1(Lead Line, with Wah)     x4  (Rhythm, with Distortion)      x4
e||5b6----------------------------||---------------------------------||
B||-------------------------------||---------------------------------||
G||--------------------------4b/3b||---------------------------------||
D||-------------------------------||0-0------------------------------||
A||----5-5-5-5-5b-5b-5b-5~~~------||0-0------------------------------||
D||-------------------------------||0-0-3-4-5/7--/8-9-10--8-9-10(/11)||

Verses (Distortion)                 x8
e||-----------------------------------||
B||-----------------------------------||
G||-----------------------------------||
D||0-0--------------------------------||
A||0-0--------------------------------||
D||0-0--3-4-5/7--/8-9-10--8-9-10(/11)-||

Chorus (Lead Line, with Wah)        x1 (Rhythm, with Distortion)x4
e||-----------------------------------||-------------------------||
B||2b~-3b~--2b~-3b~--2b~-3b~--2b~-3b~-||-------------------------||
G||-----------------------------------||-------------------------||
D||-----------------------------------||-2-2--3-5-6--(6)---------||
A||-----------------------------------||-2-2--3-5-6--(6)---------||
D||-----------------------------------||-2-2--3-5-6--(6)---------||

Bridge (Distortion, with Wah)  x3              x1
e||------------------------------|---------------||
B||------------------------------|---------------||
G||------------------------------|---------------||
D||------------------------------|---------------||
A||------------------------------|---------------||
D||0-0--5-6-7/10--10-10-7-6-7/11-|-0-0--5-6-7/10b||

Bridge (Distortion)            x4
e||------------------------------||
B||------------------------------||
G||------------------------------||
D||------------------------------||
A||------------------------------||
D||0-0--5-6-7/10--10-10-7-6-7/11-||

Bridge (Distortion)       x1
e||-------------------------||
B||-------------------------||
G||-------------------------||
D||5-5--3-3--2-0------------||
A||5-5--3-3--2-0------------||
D||5-5--3-3--2-0------------||

Bridge(Lead Line,with Distortion) (Rhythm, with Distortion)   x2
e||-----------------------------||------------------------------||
B||-----------------------------||------------------------------||
G||-----------------------------||------------------------------||
D||0-0--5-6-7/10--10-10-7-6-7/11||0-0---------------------------||
A||-----------------------------||0-0---------------------------||
D||-----------------------------||0-0--5-6-7/10--10-10-7-6-7/11-||

Bridge (Distortion)       x1
e||-------------------------||
B||-------------------------||
G||-------------------------||
D||5-5--3-3--2-0------------||
A||5-5--3-3--2-0------------||
D||5-5--3-3--2-0------------||

Bridge(Lead Line,with Distortion) (Rhythm, with Distortion)    x2
e||-----------------------------||------------------------------||
B||-----------------------------||------------------------------||
G||-----------------------------||------------------------------||
D||0-0--5-6-7/10--10-10-7-6-7/11||0-0---------------------------||
A||-----------------------------||0-0---------------------------||
D||-----------------------------||0-0--5-6-7/10--10-10-7-6-7/11-||

Bridge (Distortion)       x1
e||-------------------------||
B||-------------------------||
G||-------------------------||
D||5-5--3-3--2-0------------||
A||5-5--3-3--2-0------------||
D||5-5--3-3--2-0------------||

Bridge(Lead Line,with Distortion) (Rhythm, with Distortion)    x4
e||-----------------------------||-------------------------------||
B||-----------------------------||-------------------------------||
G||-----------------------------||-------------------------------||
D||0-0--5-6-7/10--10-10-7-6-7/11||0-0---------------------------0||
A||-----------------------------||0-0---------------------------0||
D||-----------------------------||0-0--5-6-7/10--10-10-7-6-7/11-0||

Bridge (Distortion and Wah)           x1
e||-/////////////////-\\\\\\\\\\\\\\\\\-||
B||-/////////////////-\\\\\\\\\\\\\\\\\-||
G||-/////////////////-\\\\\\\\\\\\\\\\\-||
D||-/////////////////-\\\\\\\\\\\\\\\\\-||
A||-/////////////////-\\\\\\\\\\\\\\\\\-||
D||-/////////////////-\\\\\\\\\\\\\\\\\-||

  (Lead Line, with Wah)       x4 (Rhythm, with Distortion)         x4
e||5b6-----------------------6br||-----------------------------------||
B||-----------------------------||-----------------------------------||
G||-----------------------------||-----------------------------------||
D||-----------------------------||0-0--------------------------------||
A||----5-5-5-5-5b-5b-5b-5~~~----||0-0--------------------------------||
D||-----------------------------||0-0--3-4-5/7--/8-9-10--8-9-10(/11)-||

Verses (Distortion)                 x3
e||-----------------------------------||
B||-----------------------------------||
G||-----------------------------------||
D||0-0--------------------------------||
A||0-0--------------------------------||
D||0-0--3-4-5/7--/8-9-10--8-9-10(/11)-||

Verses (Distortion)    x1
e||----------------------||
B||----------------------||
G||----------------------||
D||0-0-------------------||
A||0-0-------------------||
D||0-0--3-4-5/7--/8-9-10-||

Outro (Distortion)           x1
e||----------------------------||
B||----------------------------||
G||----------------------------||
D||---------------/12-12--/0-0-||
A||---------------/12-12--/0-0-||
D||8-9-10--8-9-10-/12-12--/0-0-||

Questions, comments, corrections, etc., to rex_of_all@hotmail.com