´╗┐ f | flybanger | haul tab online player | |


  
#-----------------------------PLEASE NOTE-------------------------------------#
#This OLGA file is the author's own work and represents their interpretation  #
#of the song. You may only use this file for private study, scholarship, or   #
#research. Remember to view this file in Courier, or some other monospaced    #
#font. See http://www.olga.net/faq/ for more information.                     #
#-----------------------------------------------------------------------------#

From: "Joe M" 
Subject: f/flybanger/haul.tab
Date: Sun, 28 Jul 2002 10:44:54 -0300


Song: Haul
Artist: Flybanger
Album: Headtrip to Nowhere (2001)
As tabbed by Joe Muggah

Dropped D tuning

Intro
e--7--(let ring)---------7/---------------------------------
B-----------------------------------------------------------
G-----------------------------------------------------------
D-----------------------------------------------------------
A-----------------------------------------------------------
D-----------------------------------------------------------

Riff
e-----------------------------------------------------------
B-----------------------------------------------------------
G-----------------------------------------------------------
D--0-0-0--5/7--5--5--5-6-7---0-0-0--5/7---x-x-5--x-x-5------
A--0-0-0--5/7--5--5--5-6-7---0-0-0--5/7---x-x-5--x-x-5------
D--0-0-0--5/7--5--5--5-6-7---0-0-0--5/7---x-x-5--x-x-5------

Verse
e-----------------------------------------------------------
B-----------------------------------------------------------
G-----------------------------------------------------------
D-----------------------------------------------------------
A-----------------(all x 8 then:)----------------(all x 7)--
D--0m-0m-0m--12^-------------------0m-0m-0m--17^------------
("Burn...crawl..step away from it all")

Pre-Chorus
e-----------------------------------------------------------
B-----------------------------------------------------------
G-----------------------------------------------------------
D--10--10--10--10--10--0m-0m-0m-0m-0m-0m-0m-0m-0m-0m-0m-0m--
A--10--10--10--10--10--0m-0m-0m-0m-0m-0m-0m-0m-0m-0m-0m-0m--
D--10--10--10--10--10--0m-0m-0m-0m-0m-0m-0m-0m-0m-0m-0m-0m--
("One more effort...")

(continued)  end on
e------------|----------------------------------------------
B------------|----------------------------------------------
G------------|----------------------------------------------
D--0m-0m-0m--|-------------5m-3m-2m-------------------------
A--0m-0m-0m--|--5--3-------5m-3m-2m-------------------------
D--0m-0m-0m--|--------5^---5m-3m-2m-------------------------

Chorus
e-----------------------------------------------------------
B-----------------------------------------------------------
G-----------------------------------------------------------
D-0--5/7--5--5--5-7--3m-3m-3m-3m-3m-3m-3m-3m-3m-3m-3m-3m-3m-
A-0--5/7--5--5--5-7--3m-3m-3m-3m-3m-3m-3m-3m-3m-3m-3m-3m-3m-
D-0--5/7--5--5--5-7--3m-3m-3m-3m-3m-3m-3m-3m-3m-3m-3m-3m-3m-
("All my feelings coming...")

Solo (played twice)
e-----------------------------------------------------------
B-----------------------------------------------------------
G--12^13^12v----12^13^12--10----7/9\7----7/9\7--------------
D---x------------x---------x----x--------x------7\5^--------
A--10^11^10v----10^11^10---8----5/7\5----5/7\5--x-----------
D-----------------------------------------------7\5^--------

Bridge A (Guitar 1, palm muted)       Bridge B (Guitar 2)
e-------------------------------------|---------------------
B-------------------------------------|---------------------
G-------------------------------------|--12-----------------
D--0h2-2-2-2-2--0h2-2-2-2-2--0h2-2-2--|---x--(let ring)-----
A--0h2-2-2-2-2--0h2-2-2-2-2--0h2-2-2--|--10-----------------
D--0h2-2-2-2-2--0h2-2-2-2-2--0h2-2-2--|---------------------

Outro                                        end on
e--------------------------------------------|--------------
B--------------------------------------------|--------------
G--------------------------------------------|--------------
D--0m-0m--2---0m-0m--1---0m-0m--2--0m-0m--1--|--1-----------
A--0m-0m--2---0m-0m--1---0m-0m--2--0m-0m--1--|--1-----------
D--0m-0m--2---0m-0m--1---0m-0m--2--0m-0m--1--|--1-----------


Intro
Riff
Verse
Pre-Chorus
Chorus
Verse
Pre-Chorus
Chorus
Solo
Bridge A, B
Verse
Outro