´╗┐ f | five for fighting | 100 years btab online player | |


  
#-----------------------------PLEASE NOTE-------------------------------------#
#This OLGA file is the author's own work and represents their interpretation  #
#of the song. You may only use this file for private study, scholarship, or   #
#research. Remember to view this file in Courier, or some other monospaced    #
#font. See http://www.olga.net/faq/ for more information.                     #
#-----------------------------------------------------------------------------#

Date: Wed, 14 Jul 2004 17:07:34 -0500
From: Wayne Ferguson 
Subject: f/five_for_fighting/100_years.btab

 Song:  100 years

Artist:  Five For Fighting

Tabbed by:  Wayne Ferguson 

 

Note: I just got started on this, hopefully someone will finish it

Thanks and God bless!

 

piano intro

 

one verse(Im 15...)

 

 

Riff A (main riff)

   Im   22   she....            

G-----------------------------------

D----------------0-------2-------0--

A--------3---0-------2-------0------

E----3------------------------------

   (15 ... still ... you)

G---------------------------------

D-------12--10--------------------

A---------------------------------

E---3-----------------------------

 

never a wish better than this

G---------------------------------

D---2---0-------------------------

A-----------3---------------------

E---------------------------------

 

after (When you've ... to live

G---------------------------------

D------------2---0----------------

A----2---3------------------------

E---------------------------------