e | emma bunton | what took you so long tab online player | |


  
#-----------------------------PLEASE NOTE-------------------------------------#
#This OLGA file is the author's own work and represents their interpretation  #
#of the song. You may only use this file for private study, scholarship, or   #
#research. Remember to view this file in Courier, or some other monospaced    #
#font. See http://www.olga.net/faq/ for more information.                     #
#-----------------------------------------------------------------------------#

Date: Fri, 9 Mar 2001 07:16:37 -0500
From: "Ivan Traveso" 
Subject: b/bunton_emma/what_took_you_so_long.tab

Artist: Emma Bunton
Song: What took you so long
Album: A girl like me (2001)
Tabbed by: Ivan Traveso (BBB)
Mail: ivandt@mtv.com

Hey, I think this song is really easy and cool to play,
so enjoy yourself...

Intro Riff:

              Am Am7 Am Am7...
E|---------------------------------------------------------|
B|---------------------------------------------------------|
G|---------------------------------------------------------|
D|---------------------------------------------------------|
A|--2h3p2--------3h5p3-----2---3/5---2h3p2-----3-3-2-2-3-2-|
E|--------3-5-----------5------------------3-5-------------|

Verse:
    Am      Am7
Ooo, talk...
Am        Am7
Can't you...
Am       Am7         Am    Am7
I have ...
Am          Am7
Don't...
Am       Am7
Your...
Am       Am7           Am        Am7
And...


Bridge:(play this riff twice):


E|-------3------|                         ------------|
B|-----1---0h1--|                         --0-1-1-0-0-|
G|---2----------|                         ------------|
D|-2------------| (X3) and then do this:  ------------|
A|--------------|                         ------------|
E|--------------|                         ------------|

Cause baby...
...
... but i believe in you...

Chorus:
                    Am
What took...
                    Am7
What took...
                    Am
What took...
               Am7
to see...
                           Am
You know...
                 Am
i make...
                 Am7
And...
                 Am
Give...

Noo noo noo (play the intro riff)

And the rest of the song goes like that: verse, bridge, Chorus
...and you play the main riff at the end


Any comment, email me...